Crucified
Agnostic Front
Agnostic FrontCrucified Прислать видеоурок
Agnostic Front Crucified
Добавлено: — , Просмотров: 222 (+0)

  Добавить в избранное

Crucified

I haven't been tabbing that long so please allow for mistakes.
(that excuse is getting a bit old now, let's face it, if i make a mistake
it's all my fault!)
I've tried to indicate timing a bit, but you'll still need to listen to the
song.
oh yeah, i used tabedit 1.6.3beta by Danny Felsteiner.....thanks Danny!
Feel free to mail me about this tab or just about anything, especialy
to talk about cool hardcore.....old(Minor Threat, Agnostic Front) and
the newer stuff(Madball, Sick Of It All).
Here it is

INTRO:
E-|---------------------------------------------------------------------------|
B-|---------------------------------------------------------------------------|
G-|-------------------4-----------------7-------------------------------------|
D-|-2-----------------4--44444444444444-7--77777777777777-7-------------------|
A-|-2--22222222222222-2--22222222222222-5--55555555555555-7--77777777777777---|
E-|-0--00000000000000-------------------------------------5--55555555555555---|
     pm..............  pm..............  pm..............  pm..............

CHORUS:
E-|-------------------------------|-------------------------------------------|
B-|-------------------------------|-------------------------------------------|
G-|--9-------------------9--------|-------------------------------------------|
D-|--9--9----------------9--9--7--|-------------------------------------------|
A-|--7--9-9997-9997-999--7--9--7--|-------------------------------------------|
E-|-----7-7775-7775-777-----7--5--|-------------------------------------------|

VERSE:
E-|---------------------------------------|-----------------------------------|
B-|---------------------------------------|-----------------------------------|
G-|-9-99-999-----------7-77-777-----------|-----------------------------------|
D-|-9-99-999--9-99-99--7-77-777--7-77-777-|-----------------------------------|
A-|-7-77-777--9-99-99--5-55-555--7-77-777-|-----------------------------------|
E-|-----------7-77-77------------5-55-555-|-----------------------------------|

SONG STRUCTURE:
Pick slide
INTRO               } X2
CHORUS              } X2
VERSE               } X3
VERSE (palm muted)
CHORUS              } X2
VERSE               } X3
VERSE (palm muted)
CHORUS              } X2
INTRO               } X2
CHORUS              } X4
Thats all folks!