Give Up
Airdash
AirdashGive Up Прислать видеоурок
Airdash Give Up
Добавлено: — , Просмотров: 217 (+0)

  Добавить в избранное

Thank God It's Monday (1988)
Give Up

Standard tuning (EADGBe)
OK, here's the tab to one of the best Airdash songs ever. If someone
didn't know, Airdash was a Finnish speed-metal band in the late 80's
and the early 90's along with Stone.
NOTE: I tabbed this about 2 years ago and dug it up from my files.
I didn't bother to check if it's correct, so let's just hope it is :)

Riff 1 (intro)
e|-----------------------------------------------------|
B|-----------------------------------------------------|
G|-----------------------------------------------------|
D|---2----3----2-----------2----3-----10--9---8---7----|
A|---2----3----2-----------2----3-----8---7---6---5----|
E|-0---00---00---xxxxxxxx0---00---000---0---0---0------|
   .   ..   ..           .   ..   ...   .   .   .

Fill 1
e|-----------------------|
B|-----------------------|
G|-------------------7---|
D|---4-4---7-7---9\7-7---|
A|---4-4---7-7---9\7-5---|
E|-xx2x2--x5x5--x--------|
   .. .   . .   .

Riff 2 (verse)
e|----------------------------------------|
B|----------------------------------------|
G|----------------------------------------|
D|----------------------------------------|
A|-----------------2-------10---9---8\----|
E|-00000000000000000-000000-8--x7--x6\----|
   ................  ......

Riff 3 (verse)
e|----------------------------------------|
B|----------------------------------------|
G|----------------------------------------|
D|----------------------------------------|
A|-----------------2-------6---7---8\9----|
E|-00000000000000000-0000004--x5--x6\7----|
   ................  ......

Riff 4 (bridge)
e|----------------------|
B|----------------------|
G|----------------------|
D|-----------7------9---|
A|--8--9--8--5-x5h6-7---|
E|--6-x7-x6-x-----------|

Fill 2
e|------------------------|
B|---------------------r--|
G|---------------------e--|
D|--2---------3-----2--s--|
A|--2---------3-----2--t--|
E|--0-000-0-0-1-0-0-0-----|
      ... . .   . .

Riff 5
e|------------------------------------|
B|------------------------------------|
G|----------------5---5---5-------6---|
D|-2---2----------5---5---5-------6---|
A|-2---2----------3---3---3-------4---|
E|-0x-x0-----------x-x---x------------|

SOLO (don't know it!!)

Riff 6
e|------------------------------------------------------------------|
B|------------------------------------------------------------------|
G|--------------------------------------------------------------5---|
D|------5---4---3---5---4---3-----5-----5---4---3---5---4---3---5---|
A|------5---4---3---5---4---3-----5-----5---4---3---5---4---3---3---|
E|--0-0---0---0---0---0---0---0-0---0-0---0---0---0---0---0---0-----|
    . .   .   .   .   .   .   . .   . .   .   .   .   .   .   .

Riff 7
e|-------------------------------------------------------|
B|-------------------------------------------------------|
G|-------------------------------------------------------|
D|---2----3----2--------------2----3---------------------|
A|---2----3----2-----4-5~-----2----3-----8---7---6---5---|
E|-0---00---00---0000-0-----0---00---000---0---0---0-----|
   .   ..   ..   .... .     .   ..   ...   .   .   .

END.