Felkeszultem A Halalra
Akela
AkelaFelkeszultem A Halalra Прислать видеоурок
Akela Felkeszultem A Halalra
Добавлено: — , Просмотров: 265 (+0)

 
Добавить в избранное

Felkeszultem A Halalra

This is a hungarian metal band.(Sorry for the mistakes, but I don't speak
very good english)
Riff A:
Guitar 1
                                                    x2
-------------------------------------------------------
-------------------------------------------------------
---------------------------------------0---------------
----1-2~------3-2~-------1-2~--------3-2~------
-------------------------------------------------------
-0-----------0------------0----------------------------
 .   H       .   P        .   H
Guitar 2
Second time only
--------------------------------------------------------
--------------------------------------------------------
--------------------------------------------------------
-2------------------------------------------------------
-2------------------------------------------------------
-0------------------------------------------------------
Guitar 1
Riff A    x 2
Guitar 2
Riff B
                                                                      x 2
-------------------------------------------------------------------------
-------------------------------------------------------------------------
-------------------------------------------------------------------------
-------------------------------------------------------------------------
----------2------------------2------------------2-----------------2------
----------2------------------2------------------2-----------------2------
-0---0-0--0---0-0--0---0-0---0---0-0---0---0-0--0---0-0--0---0-0--0---0-0
 .   . .      . .  .   . .       . .   .   . .      . .  .   . .      . .
(Both guitar):
E5                        No chord           G5      A5 
Kotelhurok, gyilkos folyo, vasuti sin,  vagy puska golyo.
Riff A & Riff B
(Both guitar):
E5                        No chord            G5        A5 
Gyogyszerek, borotva kes, templomtorony, vagy mely szakadek.
Riff A & Riff B
--------------------------------------------------------
--------------------------------------------------------
--------------------------------------------------------
-----1-2~----3-2~-----1-2~~~------------------------
------------------------------------7-5--5-3--3-2--2-0--
--0---------0----------0--------------------------------
  .   H     .   P      .   H         S    S    S    S
The second guitar play Riff B, but the end is this:
----------------------
----------------------
----------------------
----------------------
-7-5--5-3--3-2--2-0---
  S    S    S    S
Chorus:
Both guitar
                            x 2
--------------------------------
--------------------------------
--------------------------------
--7---------7---------7-----7---
--7---------7---------7-----7---
--5---5-5---5---5-5---5-----5---
  Felke -   szultem a halalra
------------------------
------------------------
------------------------  Riff A & Riff B
-----5----5--3----------
-----5----5--3----------
-----3----3--1--1-1-1-1-
                . . . .
Az eletre nem keszitett senki
Play the Chorus again. End come the solo:
Both guitar:
Riff C
                                                                 x 2
--------------------------------------------------------------------------
--------------------------------------------------------------------------
--------------------------------------------------------------------------
--------------------------------------------------------------------------
--7--------7---------7--------8---5---7--------7--------7---8---10--8-----
--5---5-5--5---5-5---5---5-5--6---3---5---5-5--5--5-5---5---6---8---6-----
      . .      . .       . .              . .     . .

Riff C & Guitar 3:
                                                                  x 2
--17--18--21--18----17--18--17--------17--18---21--18----17-18-17------
--------------------------------18---------------------------------18--
-----------------------------------------------------------------------
-----------------------------------------------------------------------
-----------------------------------------------------------------------
-----------------------------------------------------------------------
Guitar 1 & 2:
                                    X 3
---------------------------------------+--------------------------------------
---------------------------------------+--------------------------------------
---------------------------------------+--------------------------------------
---------------------------------------+--------------------------------------
--7--------7--------7---------11--11---+-7--------7---------7---------11--11--
--5---5-5--5---5-5--5---5-5---9---9----+-5---5-5--5---5-5---5---5-5---9---9---
Guitar 3:
--17-----------------------------------+-21-----------------21--------21------
---------------------------------------+--------------------------------------
---------------------------------------+--------------------------------------
---------------------------------------+--------------------------------------
---------------------------------------+--------------------------------------
---------------------------------------+--------------------------------------
  Trem. picking                          Great bend         Bend      Bend

Riff D is Riff A 12 fret higher.
Then Riff A & Riff B & Riff D, ets...