Billion Dollar Babies
Alice Cooper
Alice CooperBillion Dollar Babies Прислать видеоурок
Alice Cooper Billion Dollar Babies
Добавлено: — , Просмотров: 319 (+0)

  Добавить в избранное

Billion Dollar Babies

There is a wah-wah pedal used during the intro. Pick fast, and don't
let the first note to ring.

Intro:        |----------------------------------------------------------|
|----------------------------------------------------------|
|---------------------------------3^5-3^5-3^5-3^5-6^8-6^8--|
|-5^7-5^7-5^7-5^7-5^7-5^7-5^7-5^7--------------------------|
|----------------------------------------------------------|
|----------------------------------------------------------|
                               slow release
|-------------------------------v--------------------------5---|
|-5-5-----5----5--5--------5b-5b---5------5-5--------5--8------|
|-----7-5-----------7--5--------------4-------7-5--7-----------|
|--------------------------------------------------------------|
|--------------------------------------------------------------|
|--------------------------------------------------------------|

Chorus:        |----------------------------------------------------------|
|-------5-5------------------------------------------------|
|-----------7-5-----------10-12--10------7----9----10------|
|-------------------------10-12--10------7----9----10------|
|-------------------------8--10--8-------5----7----8-------|
|----------------------------------------------------------|
 Billion     dollar baby

While the   |------------------------|                   |---------------|
moon is     |----5-------------------| Will come off     |---------5-8b--|
rising in   |--7---7--7-5------------|    in my hands... |----5-7--------|
the sky..   |-------------7-5--------|                   |--7------------|
            |-----------------7-5----|                   |---------------|
            |---------------------8--|                   |---------------|

Solo 1:        |---------------------------------12--15b-------12-15-12----------|
|-------------------------12--15---------^---------------15-12-15-|
|-------------------12-14-----------------12----------------------|
|-------------12-14-----------------------------------------------|
|-------12-14-----------------------------------------------------|
|-12-15-----------------------------------------------------------|

|--------------------------------------------------|
|-12-15-12----15b---15-12---15-12------------------|
|----------14---------------------14-12------------|
|---------------------------------------14-12------|
|---------------------------------------------14---|
|--------------------------------------------------|

The second solo, which comes right after this one is too hard for me,
and the rest is just the same, except couple of fills and the third solo.

Ещё песни с аккордами исполнителя/группы «Alice Cooper»