Loves a Loaded Gun
Alice Cooper
Alice CooperLoves a Loaded Gun
Alice Cooper Loves a Loaded Gun
Добавлено: — , Просмотров: 519 (+1)

 
Добавить в избранное

Loves a Loaded Gun

I have spent ages trying to tab this song and the final result is this. This
song is by far my favorite Alice Cooper song.
This is all my own work
Intro(the very end of the intro may be wrong, so just improvise with the
notes given)
E-|------------------------------------------|
B-|------------------------------------------|
G-|-0-0-3---0---0-3-3--5-3-6^-6^-6^--5-3-0-3-|
D-|------------------------------------------|
A-|------------------------------------------|
E-|------------------------------------------|

E-|-----------6-6----------------------------|
B-|------6--8-----8-6------------------------|
G-|-0--7--------------7----------------------|
D-|------------------------------------------|
A-|------------------------------------------|
E-|------------------------------------------|

And here are the chords to the song.

Intro:        Gm  - F  - C , Csus4 , C 
Gm  - F  - C , Csus4 , C 

Chorus:        Gm  - Fsus4  - C , Csus4 , C 
Gm  - Fsus4  - C , Csus4 , C 
Gm  - Fsus4  - C , Csus4 , C 
Eb  - F  - Gm 

Repeat Chorus

Eb  - F  - Eb  - F 

Verse:        Gm  - C  - Eb  - F 
Gm  - C  - Eb  - Bb , F 
Gm  - C  - Eb  - F 
Gm  - C  - Eb  - Bb , F  - Gm 

Repeat Chorus

Eb  - F  - Eb  - F , Bb , F 

Repeat Verse

Repeat Chorus (instrumental)

Eb  - F  - Eb  - Bb , F 

Repeat Verse twice

Gm  - F  - Csus4

Ещё песни с аккордами исполнителя/группы «Alice Cooper»