No More Mr. Nice Guy
Alice Cooper
Alice CooperNo More Mr. Nice Guy Прислать видеоурок
Alice Cooper No More Mr. Nice Guy
Добавлено: — , Просмотров: 387 (+1)

 
Добавить в избранное

No More Mr. Nice Guy

N.B. this is tabbed up from Megadeth's version (from a film soundtrack; Shocker
I believe), so there may be some discrepencies. Where I've remembered what the
differences are, I've noted it.

Notation:
2/4    slide up
2h4    hammer on
4p2    pull off
2b4    Full bend
4r2    release bend
PM    Palm mute

INTRO:
Fig. 1
||--5---5---3-------3---3----------------|In the original version,
||o-5---5---0-------3---3-------3--------|this bar was played 4 times
||------------------------0-2/4---4p2p0--|as intro, not the 2 bars
||o--------------------------------------|played twice as in Megadeth's
||---------------------------------------|
||---------------------------------------|
                                End Fig.1
|--------------------------------------||
|-------------------------------------o||
|--------------------------------------||
|-7---7---5-------5---5-------0-------o||
|-7---7---2-------5---5---0h2---2p0----||
|-----------------------3-----------3--||
  B            E            B               E 
|---------------------------------|----------------------------------|
|-------------------10b12---------|--------------------10b12---------|
|-9b11----11r9-7------------------|-9b11-9b11-9b11r9-7---------------|
|---------------------------------|----------------------------------|
|---------------------------------|----------------------------------|
|---------------------------------|----------------------------------|

|------------------------------------|
|--------------10b12r10--------------|
|-9b11---11r9-----------9-7---9b11r9-|
|---------------------------9--------|
|------------------------------------|
|------------------------------------|
I used to be such a sweet, sweet thing 'til they got a hold of me.
A            C#                 G          B  D  E 
I'd open doors for little old ladies, I'd help the blind to see.
A           C#              G                 B  D  E 
Now I got no friends 'coz they read the papers,
F#5                   B5 
They can't be seen
D5          E5 
And me, and I get a real shot down and I'm, feeling mean
F#5            B5              D5        E5 
CHORUS:
No more, Mr Nice Guy!  No more, Mr Clean!
F#5     D5 E5           F#5    D5 E5 F#5 A5 C#5 
No more, Mr Nice Guy! They say:  He's sick, he's obscene!
F#5     D5 E5             F#5        D5   E5 F#5 A5 C#5 
w/fig. 1
VERSE 2:
I've got no friends
CHORUS: (as above)
SOLO: (only in the Megadeth version)
Repeat x6---------|
|-----------------|-----------------|-----------------|
|-----------------|-----------------|-----------------|
|-----------------|-----------------|-----------------|
|-5---------------|-5-------5-------|-5-------5-------|
|-5---------------|-5-------5-------|-5-------5-------|
|-3---0-0-0-0-0-0-|-3---0-0-3---0-0-|-3---0-0-3---0-0-|
      PM---------|      PM-|   PM--|     PM--|    PM-|
BRIDGE:
My dog bit me on the leg today, My cat clawed my eyes (clawed my eyes)
A             C#        G         B 
Ma's been thrown out of the social circle, and dad has to hide.
A                C#         G          B 
||----------------------------------|----------------------------------|
||o---------------------------------|----------------------------------|
||----------------------------------|----------------------------------|
||o---------------------------------|----------------------------------|
||--7---7---7---7---7---7---7---7---|-7---7---7---7---7---7---7---7----|
||--5---5---5---5---5---5---5---5---|-4---4---4---4---4---4---4---4----|
    PM---------------------------------------------------------------
1.  I went to church              Incognito,
2.  The reverend Smithy,          He recognized me,
|---------------------------------|----------------------------||
|---------------------------------|---------------------------o||
|---------------------------------|-4---4---------7----9-------||
|---------------------------------|-4---4---------7----9------o||
|-5---5---5---5---5---5---5---5---|-2---2---------5----7-------||
|-3---3---3---3---3---3---3---3---|----------------------------||
  PM----------------------------|
1. When everybody            rose
2. And punched me in the nose,        He said,
CHORUS: (x2)

Ещё песни с аккордами исполнителя/группы «Alice Cooper»