Am I Inside
Alice In Chains
Alice In ChainsAm I Inside Прислать видеоурок
Alice In Chains Am I Inside
Добавлено: — , Просмотров: 249 (+0)

 
Добавить в избранное

Am I Inside

Notes: A decent song. I believe one of the members of Heart guest stars
on this track. Tune guitar down 1/2 steps on ALL strings

Intro
-----

Riff 1

------------------------------------------
----------3-------3-----------3-------3---
----0---------0---------0---------0-------
------2-----2---2---------2-----2---2-----
------------------------------------------
--0------------------0--------------------

Repeat until verse section

Verse
-----

Repeat Riff 1 twice, then play Riff 2 once

Riff 2

--------------------------------------
--------------------------------------
---------0---0----0---0---0---0---0---
-----6---------6--------6-------6-----
-------6------------------------------
--4--------4--------4-------4---------

Now repeat Riff 1 three times, then play Riff 3

--------------------------------------
--------------------------------------
--------------------------------------
----6---5----4-6-4----4-6-4----4-6-4--
------6-------------------------------
-4--------4--------0--------0---------

Now play Riff 1 one time and enter Pre-Chorus

Pre-Chorus
----------

Chord Progression

B Bsus4 B B B A A A  A A A A A  F# F# 

F# F# F# F  F F F F F F F F F F F F 

Note: On second time through, play Fill 1 along with Chord Progression

Fill 1
------

-------------------------------------|---------------------------------------
--------3--------3--------3-------3--|-------3-------3--------3-------3------
----1-------1---------1-------1------|---1-------1--------1-------1----------
------2---2---2---------2---2---2----|-----2---2---2--------2---2---2--------
-------------------------------------|---------------------------------------
-0-----------------0-----------------|-0---------------0---------------------

Fill 2
------

Note: Play after second time through Pre-Chorus.
This leads into the Chorus and becomes the Chorus

                                                       
-0--0-0-0------0------|-2-2-2-2---2-2-----0--0-0-0---------|-0-0-0-0---------
-0--0-0-3------3------|-3-3-3-3---3-3-----2--2-2-2---------|-0-0-0-3---------
-2--1-1-1------1------|-2-2-2-2---2-2-----2--2-2-2---------|-2-1-1-1---------
-2--2-2-2----2-2-0-0--|-0-0-0-0---0-0-0-0-2--2-2-2---------|-2-2-2-2---------
-2--2-2-2----2-2-0-0--|-0-0-0-0---0-0-0-0-0--0-0-0---------|-2-2-2-2---------
-0--0-0-0----0-0------|-----------------------------0--3---|-0-0-0-0---------

---0-----------------
---3-----------------
---1-----------------
-2-2-0-0-------------
-2-2-0-0-------------
-0-0-----------------

Chorus
------

Chord Progression (same as Fill 2)

D     A      Esus4  E7 

Does anybody know what the heck is up with the hidden track after this song?

Ещё песни с аккордами исполнителя/группы «Alice In Chains»