Brother
Alice In Chains
Alice In ChainsBrother Прислать видеоурок
Alice In Chains Brother
Добавлено: — , Просмотров: 282 (+0)

 
Добавить в избранное

"Sap"
Brother

Both individual tunes and the complete album will be posted, the only
difference being the sizes (individual tunes posted for users with
small accounts).

A few notes about this song. You MUST drop your guitar into a flat E
tuning (one-half step down on each string). As well, listen to the album
for exact timing.

Intro

-0----0---0-0--0---0--0---0-0--|---0--0--0--0-------------------------------
-2----2---2-2--2---2--2---2-2--|---2--2--2--2--3-/-5--3--2------------------
-2----2---2-2--2---2--2---2-2--|---2--2--2--2--0-/-0--0--2------------------
-2----2---2-2--2---2--2---2-2--|---2--2--2--2--3-/-5--3--2------------------
-0----0---0-0--0---0--0---0-0--|---0--0--0--0--0-/-0--0--0------------------
-------------------------------|--------------------------------------------

Repeat Intro 4 times and play Intro.2 along with Intro after 4th measure

Intro.2

------------------------|---------------------------------------------------
----5^(1/2)-------------|-----5^(1/2)-----------8^(1/2)---------------------
--------------6^(1/2)---|--------------6^(1/2)------------------------------
------------------------|---------------------------------------------------
------------------------|---------------------------------------------------
------------------------|---------------------------------------------------

Repeat Intro along with Intro.2 until CHORUS

Chorus
------

Chord Progression
F  F  F F  F  F F  F  F F F F F F  A  Asus4 Asus4 Asus4  Asus4  Asus4 
A A  A  A  Asus4 Asus4  Asus4 Asus4 Asus4  A A  A A A A  F F F  F F 
F F  F  F F  F F  F F F  G5  G5 G5 G5  G5 G5 G5 G5 

Return to Verses or Solo

Solo
----
                                                |--hold bend-----|
     ~                                                            ~~~
-------------------------------|---------------------5---5-|--5--------------
-------------------------------|-------------------5---5---|-----5-8^(1)-8---
----------------5--7-7^(1/2)r--|--5---5-----7^(1)----------|-----------------
--5h7-------5h7----------------|----7----------------------|-----------------
-------------------------------|---------------------------|-----------------
-------------------------------|---------------------------|-----------------

                                                              |--hold bend-|
                                                ~~~
----------------------------------------------------|------------------------
-7--5--7^(1/2)--5-------------------5^(1/4)---------|------------------------
------------------7--5-7^(1/2)r-5---5^(1/4)---------|------------------------
----------------------------------7----------5h7----|------------------------
----------------------------------------------------|--5--3^(1)------3---3---
----------------------------------------------------|------------------------

                             ~                ~~
---------------------------------------------------------|-------------------
---------------------------------------------------------|-7^(1/2)-----------
--------------------5-7^(1)r--------7^(1/2)r--5----5-----|-7^(1)-------------
--------------5--7------------------------------7--------|-------------------
----------5h7--------------------------------------------|-------------------
--5--3--5------------------------------------------------|-------------------

                                                     ~        ~~~
-------------------------------------------------------------|---------------
-7^(1/2)r---------------7^(1/2)-7^(1/2)r---------------------|---------------
-7^(1)-----7^(1)r--5----7^(1)---7^(1)r-----7^(1)r-5----------|---------------
---------------------7------------------------------7--------|--5--7---------
-------------------------------------------------------------|---------------
-------------------------------------------------------------|---------------

                                               ~~
--------5---8^(1)r---(8)--8--5--------------------|--------------------------
--------5----------------------8^(1)r----7h8--7---|5-------------------------
-----5--------------------------------------------|--7^(1/2)-7-5-----5-7^(1/2)
-5h7----------------------------------------------|--------------5h7---------
--------------------------------------------------|--------------------------
--------------------------------------------------|--------------------------

End solo...

Repeat Intro until end of song

Ещё песни с аккордами исполнителя/группы «Alice In Chains»