God Smack
Alice In Chains
Alice In ChainsGod Smack Прислать видеоурок
Alice In Chains God Smack
Добавлено: — , Просмотров: 271 (+0)

  Добавить в избранное

"Dirt"
God Smack

tune all strings half step down.
use these riffs thru the song. listen yourself for structure and timing.
all riffs are here (I think), also the solo.

riffs
riff 1
    .  .  .  .  .  .  .  .   .  .  .  .  .      .  .  .  .  .  .  .  .   .  .  .  .
|-------------------------------------------------------------------------------------------|
|-------------------------------------------------------------------------------------------|
|-------------------------------------------------------------------------------------------|
|---2--3--2---------------------------------4---2--3--2------------------------------5------|
|---1--1--1--4--3--4--3--4---2--2--3--3--4--2---1--1--1--4--3--4--3--4---2--2--3--3--3--5---|
|------------2--2--2--2--2---0--0--1--1--2---------------2--2--2--2--2---0--0--1--1-----3---|
riff 2
    .  .  .  .  .  .  .  .   .  .  .  .            .  .  .  .  .  .  .  .  .  .  .  .  .  .
|------------------------------------------------------------------------------------------------|
|------------------------------------------------------------------------------------------------|
|------------------------------------------------------------------------------------------------|
|----------------------------------------5---4-----------------------------------------------4---|
|---3--4--3--4--2--2--2--2---2--2--2--2--3---2-----3--4--3--4--2--2--2--2--2--2--2--2--2--2--2---|
|---2--2--2--2--0--0--0--0---0--0--0--0---------0--2--2--2--2--0--0--0--0--0--0--0--0--0--0------|
fill 1
|--------------------------------------|
|--------------------------------------|
|--------------------------------------|
|--------------------------------------|
|---4--5---------5------7--7---7---7---|
|---2--3---------3------5--5---5---5---|
riff 3 (w/ wah wah)
|---7--7--7---7----7---------7--7--7---7----7-------|
|---7--7--7---7----7--7--9---7--7--7---7----7-------|
|---7--7--7---7----7--7--9---7--7--7---7----7--10---|
|----------------------------------------------10---|
|-----------------------------------------------8---|
|-----------------------------------------------8---|

guitar solo
                   .         .          .
|-----------------------------------------half-----------------------2---------|
|------------------------------------------6----full-----------------2---------|
|-------------9/12-----full-------full---9^---9^----------2-------------x-x-x-|
|---x--x--7-----------9^---------7^--------------------2h3---x-x-2h4-----x-x-x-|
|---x--x--7--------8---------7---7------7--------------------------------------|
|------------------------------------------------------------------------------|
                                                               half (hold)
|-----------------------------------------------------12-13-14^----------------|
|-------------full---full-(hold)-------------------14--------------------------|
|--------2h4-4^--(4)^----------------(4)-/-13--------------------------------|
|---2h4------------------------------------------------------------------------|
|------------------------------------------------------------------------------|
|------------------------------------------------------------------------------|

|--(14)---14p13p12----------------------full----------------------------------|
|------------------12~-------------1012^-----10~-------14\7~~~-------------|
|------------------------14~--9/11-----------------0/11----------9~~-------|
|------------------------------------------------------------------------------|
|------------------------------------------------------------------------------|
|------------------------------------------------------------------------------|
God's name is smack for some..................... Yeah.

Ещё песни с аккордами исполнителя/группы «Alice In Chains»