Head Creeps
Alice In Chains
Alice In ChainsHead Creeps Прислать видеоурок
Alice In Chains Head Creeps
Добавлено: — , Просмотров: 201 (+1)

 
Добавить в избранное

"Alice In Chains"
Head Creeps

Okey dokey this is a really cool song, thank god it's easy to transcribe
I didn't put any timing into this, and there's a lot of times where the
open E  power chord (022xxx) repeats that I didn't put in, so figure it
out yourself. If you can't figure it out, you shouldn't be playing guitar.
 -the biggest third of FEEDBACK

  very beginning    |lead intro  | rhythm intro riff                |
                    |            | verse riff           x3          |
e:-----------------||-----------||---------------------------|-----||
B:-----------------||-----------||*-------------------------*|-----||
G:-----------------||-----------||---------------------------|-----||
D:2--------2-------||-----------||*2------------------------*|2---3||
A:2--------2-------||10--\9--/14||-2-------------------------|2---3||
E:0--------0-------||-----------||-0---5b(6)b(5)b(6)b(5)b(6)-|0---1||
                                   P.M. during intro only .....

   prechorus riff                                      | prechorus-chorus
                                                       | transition
e:---------------------------------|------------------||--------------------|
B:*--------------------------------|-----------------*||--------------------|
G:---------------------------------|------------------||-----------------4~-|
D:*2---------7b(8)7b(8)7b(8)-b(8)7-|2----------------*||-10--9--5--4--2--2--|
A:-2---5-7-5----------------------6|2---5-7-5---------||-10--9--5--4--2-----|
E:-0-------------------------------|0---------6-6-6/7-||-8---7--3--2--0-----|

  |    chorus riff                                | that squeaky outro part |
  |                                    x a bunch  |                         |
e:|------------------|---------------------------||-10----10----11----12----|
B:|*-----------------|--------------------------*||*---11----11----11----11*|
G:|---------------4~-|------------------------4~-||-------------------------|
D:|*2--8--8/9--2--2--|-2------5-----4---3--2--2-*||*-----------------------*|
A:|-2--8--8/9--2-----|-2----5-----4--------2-----||-------------------------|
E:|-0--6--6/7--0-----|-0--3-----2-----1----0-----||-------------------------|

Ещё песни с аккордами исполнителя/группы «Alice In Chains»