Heaven Besides You
Alice In Chains
Alice In Chains Heaven Besides You
Добавлено: — , Просмотров: 322 (+0)

 
Добавить в избранное

"Alice in Chains", "Dog Album"
Heaven Besides You

tune down a 1/2 step
intro riff
*=means to bend up a whole step
e-------------------------------------------
b-------------------------------------------
g-------------------------------------------
d---------5*-----------0----------------0---
a-------------7-----7-----7---------5-------
E---0------------5-----------5---3----------
i didn't include the strumming pattern, you'll have to do that yourself.
   a  g  c  b 
e--0--3--0--2---
b--2--3--1--0---
g--2--0--0--2---
d--2--0--2--1---
a--0--2--3--2---
E-----3---------
note- electric strums, acoustic picks the strings
e-----------------------
b-----------------------
g--0-0--0-0--0-0--0-0---
d--1-1--2-2--3-3--4-4---
a--3-3--4-4--5-5--6-6---
e-----------------------
!=means to palm mute
e-------------------------------
b-------------------------------
g--0----------------------------
d--2--2------------0!-------0!--
a--2-----2------2!--------1!----
e--0----------3!-------2!-------

Ещё песни с аккордами исполнителя/группы «Alice In Chains»