I Am Iron Glance
Alice In Chains
Alice In Chains I Am Iron Glance
Добавлено: — , Просмотров: 186 (+0)

  Добавить в избранное

'Dirt'
I Am Iron Glance

tune down half step
guitar 1
|----------------------------------------------------------|----------    ------------|
|----------------------------------------------------------|----------    ------------|
|----------------------------------------------------------|---*------    ------------|
|----------------------------------------------------------|----------    ------------|
|----------------------------------------------------------|----let---    ----7\\-----|
|--0^1^0---------0^1^0-----------0^1^0------------0^1^0----|---0-ring-    ------------|
  do these bends with bar.
guitar 2 (starts when marked with * )                            1Ѕ               ah
|--------------------------------------------------------------16^--16-16h17p16--------Ѕ----|
|------------------------------------------------------------------------------12-17--Ѕ^----|
|--------8-----6-5-------8-------5-6-8---8-----6-5-------8--------------------------11^-----|
|----6-5---6-5-----8-6-5---5-6-8-------6---6-5-----8-6-5---5-6------------------------------|
|-------------------------------------------------------------------------------------------|
|-------------------------------------------------------------------------------------------|

Ещё песни с аккордами исполнителя/группы «Alice In Chains»