It Ain't Like That
Alice In Chains
Alice In ChainsIt Ain't Like That Прислать видеоурок
Alice In Chains It Ain't Like That
Добавлено: — , Просмотров: 286 (+0)

 
Добавить в избранное

It Ain't Like That

Tune down 1/2 step
(
)
(       Broken Strum
^...R   Bend, Hold, and Release
       pull off/ hammer on
/       slide
{}      harmonics
()      step of  bend
Riff 1
  E                (1)
|-)-0---------------------------------------------|
|-(-0---------------------------------------------|
|-)-1---------------------------------------------|
|-(-2---------------------------------------------|
|-)-2---------------------------------------------|
|-(-0-------------3^...R-----------------------|
  Riff 2
|-----------------------------------------------------|
|-----------------------------------------------------|
|----------------------------------------------------|
|------------------------------------------------------|
|----2---2------3--3---3---------------------------|
|----0---0------1--1---1-------3----1----0--------|
Riff 2 with this fill once in the intro
    w/ wah
|-----{12}-----------------------------------------|
|-----------{12}-----------------------------------|
|---------------------------------------------------|
|----------------------------------------------------|
|----------------------------------------------------|
|---------------------------------------------------|
Riff  3
|--------------------------------------------------|
|---------------------------------------------------|
|-------------------------------------------------|
|----5--------------7-------------------2--------|
|----3-----5-------5-----7-------------0---------|
|-----------3--------------5-------3--------------|
Solo
|------------------------------------------------------|
|------------------------------------------------------|
|------------------------------------------------------|
|-----/8--7------750-----3--2----------------|
|-------------------------------------------------------|
|-------------------------------------------------------|

|-------------------------------------------------------|
|---------------------3---5--------------------------|
|-----------0--2------------------------------------|
|---2--3-------------------------------------------|
|-----------------------------------------------------|
|-----------------------------------------------------|
                                (1)       (1)      (1)
|-------------------------------------------------------------|
|----------------------------15-------15-------15--------|
|---------12--14--12----14^...----17^-----17^-------|
|---/14-----------------------------------------------------|
|-------------------------------------------------------------|
|-------------------------------------------------------------|
       (1)   (1)   (1/2)                    (1)
|-------------------------------------------------------------|
|---15-----15-------15-------15-------------------------|
|---17^----17^----R17------16-------14^----12------|
|-------------------------------------------------------------|
|-------------------------------------------------------------|
|-------------------------------------------------------------|
      (1)                        (1)
|---15^---R15-----------------------------------------------|
|--------------------17----15..^R-----15--15--15--15--|
|---------------------------------------------------------------|
|---------------------------------------------------------------|
|---------------------------------------------------------------|
|---------------------------------------------------------------|

|-------------------------------------------------------------|
|---12--12--12--12-----10--10----8--8/5------------|
|-------------------------------------------------------------|
|-------------------------------------------------------------|
|-------------------------------------------------------------|
|-------------------------------------------------------------|
         (1)
|-------------------------------------------------------|
|---0--3^R0---------------------------------------|
|------------------0-----------------------------------|
|-------------------------------------------------------|
|-------------------------------------------------------|
|-------------------------------------------------------|

Ещё песни с аккордами исполнителя/группы «Alice In Chains»