Junkhead
Alice In Chains
Alice In ChainsJunkhead Прислать видеоурок
Alice In Chains Junkhead
Добавлено: — , Просмотров: 194 (+0)

 
Добавить в избранное

"Dirt" (1992)
Junkhead

INTRO: RIff 1 w/ ad lib intro vocal
RIFF 1:
       yeah................
       B5  Bb5    Bb5 G5  F#5   F5   F5  E5 
|-----------------------------------------------|
|-----------------------------------------------|
|------4---3------3-----------------------------|
|------4---3------3---5---4-----3-----3---2-----|
|------2---1------1---5---4-----3-----3---2-----|
|---------------------3---2-----1-----1---0-----|
       B5  Bb5    Bb5 G5  F#5   F5   F5  E5   E5 
|-----------------------------------------------|
|-----------------------------------------------|
|------4---3------3-----------------------------|
|------4---3------3---5---4-----3-----3---2---2-|
|------2---1------1---5---4-----3-----3---2---2-|
|---------------------3---2-----1-----1---0---0-|
       yeah.............  ah..............
       B5  Bb5    Bb5 G5  F#5   F5   F5  E5 
|-----------------------------------------------|
|-----------------------------------------------|
|------4---3------3-----------------------------|
|------4---3------3---5---4-----3-----3---2-----|
|------2---1------1---5---4-----3-----3---2-----|
|---------------------3---2-----1-----1---0-----|
                                       end Riff 1
       B5  Bb5    Bb5 G5  F#5   F5   F5  E5 
|-----------------------------------------------|
|-----------------------------------------------|
|------4---3------3-----------------------------|
|------4---3------3---5---4-----3-----3---2-----|
|------2---1------1---5---4-----3-----3---2-----|
|---------------------3---2-----1-----1---0-----|
VERSE 1: Riff 2 w/ lyrics
a good night, the best in a long time
a new friend turned me on to an old favorate
nothing better than a dealer who's high
be high, convince them to buy
RIFF 2:
|-----------------------------------------------|
|-----------------------------------------------|
|-----------------------------------------------|
|-----------------------------------------------|
|------2---1------1-----------------------------|
|---------------------3~--2-----1-----1---0-----|
       palm mute slightly
|-----------------------------------------------|
|-----------------------------------------------|
|-----------------------------------------------|
|-----------------------------------------------|
|------2---1------1-----------------------------|
|---------------------3~--2-----1-----1---0-----|

|-----------------------------------------------|
|-----------------------------------------------|
|-----------------------------------------------|
|-----------------------------------------------|
|------2---1------1-----------------------------|
|---------------------3~--2-----1-----1---0-----|
                                       end Riff 2
|-----------------------------------------------|
|-----------------------------------------------|
|-----------------------------------------------|
|-----------------------------------------------|
|------2---1------1-----------------------------|
|---------------------3~--2-----1-----1---0-----|
CHORUS:
   yeah.....                                what's my drug of choice?
   A5        C5                   G5        F5 
|------------------------------|------------------------------------------|
|------------------------------|------------------------------------------|
|--2--2--2---5-----------------|--0--0--0---------------------------------|
|--2--2--2---5-----------------|--0--0--0---3----------3--2--0-----0------|
|--0--0--0---3------------X-X--|--X--X--X---3-------------------3---------|
|-------------------------X-X--|--3--3--3---1-------------------------3~--|
                                            well, what have you got?
   A5        C5                   G5        F5 
|------------------------------|------------------------------------------|
|------------------------------|------------------------------------------|
|--2--2--2---5-----------------|--0--0--0---------------------------------|
|--2--2--2---5-----------------|--0--0--0---3----------3--2--0-----0------|
|--0--0--0---3------------X-X--|--X--X--X---3-------------------3---------|
|-------------------------X-X--|--3--3--3---1-------------------------3~--|
                                            I don't go broke
   A5        C5                   G5        F5 
|------------------------------|------------------------------------------|
|------------------------------|------------------------------------------|
|--2--2--2---5-----------------|--0--0--0---------------------------------|
|--2--2--2---5-----------------|--0--0--0---3----------3--2--0-----0------|
|--0--0--0---3------------X-X--|--X--X--X---3-------------------3---------|
|-------------------------X-X--|--3--3--3---1-------------------------3~--|
                                            and I do it a lot
   A5        C5                   G5        F5 
|------------------------------|------------------------------------------|
|------------------------------|------------------------------------------|
|--2--2--2---5-----------------|--0--0--0---------------------------------|
|--2--2--2---5-----------------|--0--0--0---3----------3--2--0-----0------|
|--0--0--0---3------------X-X--|--X--X--X---3-------------------3---------|
|-------------------------X-X--|--3--3--3---1-------------------------3~--|
VERSE 2: Riff 1 w/ lyrics
seems so sick to the hypocrite norm
running their boring drills
but we are an elite race of our own
the stoners, junkies, and freaks
VERSE 3: Riff 2 w/ lyrics
are you happy?  i am man
content and fully aware
money, statues, nothing to me
'cause your life's empty and bare
CHORUS
INTERLUDE: guitar plays harmonized solo while bass plays Chorus.
Solo:
|-------------------------------------|
|---------------8----------8--8--10---|
|------------9------------------------|
|--7---7--7---------------------------|
|-------------------------------------|
|-------------------------------------|
                                            repeat 4x
|---------------------------------------------------|
|---8------8--8--10---------------------------------|
|--------------------10------10--9--7------7--------|
|--------------------------------------10-----------|
|---------------------------------------------10----|
|---------------------------------------------------|
RIFF 1: w/ ad lib intro vocals
VERSE 4: w/ Riff 2 and lyrics
you can't understand a user's mind
but try, with your books and degrees
if you let yourself go and open your mind
i'll bet you'd be doing like me
and it ain't so bad
CHORUS
OUTRO: Riff 1 w/ lyrics
say, i do it a lot
i do it a lot
i do it a lot
say, i do it a lot

Ещё песни с аккордами исполнителя/группы «Alice In Chains»