Put You Down
Alice In Chains
Alice In ChainsPut You Down Прислать видеоурок
Alice In Chains Put You Down
Добавлено: — , Просмотров: 274 (+1)

 
Добавить в избранное

Put You Down

Greetings and Salutations:
Here's a TAB of Alice In Chains' little kick-butt number, "Put You Down".
Totally riff-based groovy song, don't even attempt it live without a
gifted rhythm section. Get your fretters nimble, the repetitive verse will
make 'em ache if you're not in shape!

Heavy Distortion Throughout
Intro/Chorus:
1|--------------------------------------------------------------------------
2|--------------------------------------------------------------------------
3|--------------------------------------------------------------------------
4|-----------2------2------2-----2-----------2-------4-4----4-----------2---
5|-4-4---3_4----3_4-----3--0-----0--0-0--3_4---0--0----0----2--0-0--3_4-----
6|-2-2----------------------------------------------------------------------

                  1-----------------------------|2 ---------------|
1|----------------------------------------------|-----------------|---------
2|--------------------------5-5-5--4----------4-|-----------------|---------
3|-----------------4--------5-5-5--4----------4-|--4--4---5--4----|---------
4|------2--2--4----4----------------------------|--4--4---5--4--2-|---------
5|--3_4----0--2----2--2-2-------------0_3_4-----|--2--2---3--2--0-|---------
6|----------------------------------------------|-----------------|---------
Verse:
    ( 3 times                 )
1|--------------------------------------------------------------------------
2|--------------------------------------------------------------------------
3|---------------------------------------------4--4-------------------------
4|---------2--------2--------2--------2---2----4--4-------------------------
5|---2_3_4------3_4------3_4----2_3_4---4------2--2-------------------------
6|------------2--------2----------------------------------------------------
Pre-Chorus:
(all are root-5th power chords)
G A B        G A B C 
/ / /        / / / /
Solo:             Outro:
1|--------------------------------------------------------------------------
2|---4---2------------------------------------------------------------------
3|---4---2------------------------------------------------------------------
4|---4---2-----4---------5-------5--------5---------7-------7-------7-------
5|-----------------5_6_7-----6_7------6_7-----7_8_9-----8_9-----8_9---------
6|-------------------------5--------5-----------------7-------7-------------

1|--------------------------------------------------------------------------
2|--------------------------------------------------------------------------
3|--------------------------------------------------------------------------
4|-------3--------2--------2---------2-------2--------2---------------------
5|-2_3_4------3_4------3_4-----2_3_4-----3_4------3_4-----------------------
6|----------2--------2-----------------2--------2---------------------------

I haven't been known to finish songs but i can at least get them going..
this is the into and somewhat verse to this awsome song..

--------------------------------------------------------------------

e:---------------------------------|----------------------------|
B:---------------------------------|----------------------------|
G:---2--2--------------------2-----|--2--2----------------------|
D:---2--2--------2--------2--2--4--|--2--2--------2-2-2---4--4--|
A:---0--0--2--4-----2--4-----0--4--|--0--0--2--4----------------|
E:------------------------------2--|----------------------------|

e:----------------------------------------------------------|
B:------------------------------------------4--x--2-------2-|
G:-2--2--------------------2--4-----2--2----4--x--2-------2-|
D:-2--2--------2--------2--2--4-----2--2-------------2h4----|
A:-0--0--2--4-----2--4-----0--2-----0--0--------------------|
E:----------------------------------------------------------|
Do this after the first time around on the intro instead of the
4 x 2
4 x 2 thingy above this..
e:------------------------------
B:------------------------------
G:-4-4--5--4--------------------
D:-4-4--5--4--------------------
A:-2-2--3--2--------------------
D:------------------------------

  ChOrus or something..
e:-------------------|
B:-------------------|
G:-------------------|
D:--------2--------2-|
A:-2-3-4-----2-3-4---|
E:-------------------|

Ещё песни с аккордами исполнителя/группы «Alice In Chains»