What the Hell Have I
Alice In Chains
Alice In ChainsWhat the Hell Have I Прислать видеоурок
Alice In Chains What the Hell Have I
Добавлено: — , Просмотров: 282 (+0)

 
Добавить в избранное

The Last Action Hero Soundtrack (1993)
What the Hell Have I?

Tuned down a half-step (Chords given in regular tuning)

Verse:         A                                            F 
|--------------------------------|--------------------------------|
|--------------------------------|--------------------------------|
|2b3b2---------------------------|----------------------------2---|
|--------0-----------------------|----2b3b2---------------3-------|
|------------4-------0---1---0---|--------------------3-----------|
|----------------3---------------|------------1-------------------|
 1 e + a 2 e + a 3 e + a 4 e + a  1 e + a 2 e + a 3 e + a 4 e + a
 A                                            D5 
|--------------------------------|--------------------------------|
|--------------------------------|------------3-------------------|
|2b3b2---------------------------|------------2-------------------|
|--------0-----------------------|----2b3b2---0-------------------|
|------------4-------0---1---0---|------------0-------------------|
|----------------3---------------|--------------------------------|
 1 e + a 2 e + a 3 e + a 4 e + a  1 e + a 2 e + a 3 e + a 4 e + a

Chorus:         E5      F5  E5              D5       D5  A 
|--------------------------------|--------------------------------|
|----------------------------3---|----3---------------------------|
|----------------------------2---|----2---2-----------------------|
|2-------3---2---------------0---|----0---2-----------------------|
|2-------3---2-------3---2---0---|----0---0-----------------------|
|0-------1---0-------------------|--------------------------------|
 1 e + a 2 e + a 3 e + a 4 e + a  1 e + a 2 e + a 3 e + a 4 e + a
 E5  F5  E5                  D5       D5  A 
|--------------------------------|--------------------------------|
|----------------------------3---|----3---------------------------|
|----------------------------2---|----2---2-----------------------|
|2---3---2-------------------0---|----0---2-----------------------|
|2---3---2-------3---2---0---0---|----0---0-----------------------|
|0---1---0-----------------------|--------------------------------|
 1 e + a 2 e + a 3 e + a 4 e + a  1 e + a 2 e + a 3 e + a 4 e + a

Last Time:     A                                            F 
|--------------------------------|--------------------------------|
|--------------------------------|--------------------------------|
|2b3b2---------------------------|----------------------------2---|
|--------0-----------------------|----2b3b2---------------3-------|
|------------4-------0---1---0---|--------------------3-----------|
|----------------3---------------|------------1-------------------|
 1 e + a 2 e + a 3 e + a 4 e + a  1 e + a 2 e + a 3 e + a 4 e + a
 A                                            D5 
|--------------------------------|--------------------------------|
|--------------------------------|--------------------------------|
|2b3b2---------------------------|------------2-------------------|
|--------0-----------------------|----2b3b2---3-------------------|
|------------4-------0---1---0---|------------3-------------------|
|----------------3---------------|------------1-------------------|
 1 e + a 2 e + a 3 e + a 4 e + a  1 e + a 2 e + a 3 e + a 4 e + a

Ещё песни с аккордами исполнителя/группы «Alice In Chains»