Wild Flowers
All About Eve
All About EveWild Flowers Прислать видеоурок
All About Eve Wild Flowers
Добавлено: — , Просмотров: 261 (+0)

  Добавить в избранное

Wild Flowers

Intro/Verse:    e|------------------------------------0----------------------------------------|
b|------3--------3------3---------------3------3--------3-------3--------------|
g|----2--------2---2--2-------------2--------2--------2---2---2---2------------|
d|--0--------------------------2h3---------0-------------------------3h0-------|
a|-----------3------2-------------------------------3------2--------------3h0--|
e|-----------------------------------------------------------------------------|

Prechorus:    e|-----------0------------------0----------------0----------------0------------|
b|---------0---0--------------0---0------------0---0------------0---0----------|
g|------5--------5------5---5-------5----5---5-------5----5---5-------5---5----|
d|----7------------7------5-----------5----4-----------4----3-----------3------|
a|-----------------------------------------------------------------------------|
e|-----------------------------------------------------------------------------|

Chorus:        e|---------------------------------------------0-----------------0----------|
b|------0-----0---0------0-----0----0--------0---0-------------0---0--------|
g|----0-----0----------0-----0-------------5-------5-----5---5-------5---5--|
d|--2-----4-----5-----2-----4-----5------7-----------7-----5-----------5----|
a|--------------------------------------------------------------------------|
e|--------------------------------------------------------------------------|

Note that the guitar part on the album doesn't always stick to these exact
phrasings, so feel free to add/remove/improvise around this.
I would have put in the number of times you play each part, and the sequence to
play them in, only I didn't. You can work it out from the record anyway.
Happy Playing!

Ещё песни с аккордами исполнителя/группы «All About Eve»