Blues' Theme
Allan Davie
Allan DavieBlues' Theme Прислать видеоурок
Allan Davie Blues' Theme
Добавлено: — , Просмотров: 213 (+0)

 
Добавить в избранное

Blues' Theme
(Mike Curb)

Intro:
(motorcycles and unaccompanied fuzz guitar)
 v   v   v   v     v   v   v   v     v   v   v   v     v   v   v   v
-----------------|-----------------|-----------------|-----------------
-----------------|-----------------|-----------------|-----------------
-----------------|-----------------|-----------------|-----------------
-----------------|-----------------|-----------------|-----------------
-----------------|-----------------|-----------------|-----------------
-0---0-----0-0---|-3-----3-2---1---|-0---0-----0-0---|-3-----3-2---0---
"Verse" (repeat 3X w/intermittent motorcycle effects):
 A                 C       D   E      A                 C       D   E 
 v   v   v   v     v   v   v   v      v   v   v   v     v   v   v   v
-----------------|-----------------  -----------------|-----------------
-----------------|-----------------  -----------------|-----------------
-----------------|-----------------  -----------------|-----------------
-----------------|-----------------  -----------------|-----------------
-0-/12----12-12--|10----10-9---7---  -0-/12---12-12-12|12\10-10-9---7---
-----------------|-----------------  -----------------|-----------------
^^^^^^^^^^^^^^^ 3X ^^^^^^^^^^^^^^^^
 D                 F       G   A     D                 F       G   A 
 v   v   v   v     v   v   v   v     v   v   v   v     v   v   v   v
-----------------|-----------------|-----------------|-----------------|
-----------------|-----------------|-----------------|-----------------|
-----------------|-----------------|-----------------|-----------------|
-0-/12----12-12--|10----10-9---7---|-0-/12----12-12--|10----10-9---7---|
-----------------|-----------------|-----------------|-----------------|
-----------------|-----------------|-----------------|-----------------|
 A                 C       D   E     A                 C       D   E 
 v   v   v   v     v   v   v   v     v   v   v   v     v   v   v   v
-----------------|-----------------|-----------------|-----------------
-----------------|-----------------|-----------------|-----------------
-----------------|-----------------|-----------------|-----------------
-----------------|-----------------|-----------------|-----------------
-0-/12----12-12--|10----10-9---7---|-0-/12---12-12-12|12\10-10-9---7---
-----------------|-----------------|-----------------|-----------------
 E                 G      F#   F     E                 G      F#   E 
 v   v   v   v     v   v   v   v     v   v   v   v     v   v   v   v
-----------------|-----------------|-----------------|-----------------
-----------------|-----------------|-----------------|-----------------
-----------------|-----------------|-----------------|-----------------
-----------------|-----------------|-----------------|-----------------
-----------------|-----------------|-----------------|-----------------
-0---0-----0-0---|-3-----3-2---1---|-0---0-----0-0---|-3-----3-2---0---
Coda:
 A                 C       D   E      A5 
 v   v   v   v     v   v   v   v      v
-----------------|-----------------  ---
-----------------|-----------------  ---
-----------------|-----------------  -2-
-----------------|-----------------  -2-
-0-/12----12-12--|10----10-9---7---  -0-
-----------------|-----------------  ---
^^^^^^^^^^^^^^^ 7X ^^^^^^^^^^^^^^^^