Whipping Post
Allman Brothers
Allman BrothersWhipping Post Прислать видеоурок
Allman Brothers Whipping Post
Добавлено: — , Просмотров: 274 (+0)

  Добавить в избранное

Whipping Post
(Words and Music by Gregg Allman)

INTRODUCTION:
     e s s s s e s s s s     e s s s s e e
+------------------------+------------------+
|*6:---------------------|5:---------------*|
|*8:---------------------|8:-----------5-3-*|
+----5-5-3-5-3-5-5-3-5-3-+---5-5-3-5-3------+
VERSE:
      s e s e s e s e s e s e e s s e 7  s e s e s e s e s e s e e^e^e
+--------------------------------------+-------------------------------+
|*12:-7-7-7-7---------7-7-7-7-5-------*|-7-7-7-7---------7-7-7-7-------|
|* 8:---------------------------7-5-3-*|-------------------------0-3-4-|
+-------------5-5-5-5------------------+---------5-5-5-5---------------+
CHORUS: (Caveat: I'm not sure about the chorus)
  Q q e Q e e e   e^e^e e^e^e e^e^e e^e^e    Q e^e^e Q e^e^e 3  e q Q H
+---------------+-------------------------+-------------------+---------+
|---------------|-------------------------|*---------0-------*|---R-R-R-|
|-5-5-0-5-0-3-4-|-------------------------|*-0-3-4-0---------*|-3-------|
+---------------+-0-0-0-2-2-2-3-3-3-4-4-4-+------------0-3-4--+---------+
BRIDGE:
  s e s e s e s e s e s e s e s e   s e s e s e s e s e s e s e s e
+---------------------------------+-------------------------2-2-2-2-+
|-------------------------0-0-0-0-|-2-2-2-2-4-4-4-4-5-5-5-5---------|
|-0-0-0-0-2-2-2-2-3-3-3-3---------|---------------------------------|
+---------------------------------+---------------------------------+
  s e s e s e s e s e s e s e s e   Q Q H    e q Q e q Q   e q Q e q Q 2
+-4-4-4-4-5-5-5-5-7-7-7-7-9-9-9-9-+-------+--------------+--------------+
|---------------------------------|-------|*-----R-----R-|-----R-----R-*|
|---------------------------------|-0-0-0-|*-0-0---2-2---|-3-3---2-2---*|
+---------------------------------+-------+--------------+--------------+
    e q Q
+---------+
|6:---R-R-|
|8:-0-----|
+---------+

NOTES:
+----+                   +----+
|*--*+  = MEASURE        |4:--|  = TIME
|*--*+    REPEATS        |4:--|    SIGNATURES
+----+                   +----+
+ = TIE
H = HAMMER ON
P = PULL OFF
^  = TRIPLET
\  = SLIDE TO FRET
\X = SLIDE TO NOWHERE
 = BEND
R = Rest
~ = Trill

Ещё песни с аккордами исполнителя/группы «Allman Brothers»