Pan Cake Batter Girl
Almonzo
Almonzo Pan Cake Batter Girl
Добавлено: — , Просмотров: 239 (+0)

  Добавить в избранное

Pan Cake Batter Girl

This song is the only one by Almonzo that I know of its
on the @rt Core Vol.1 tape. I'm probleby the only person
who has heard the song and play guitar, but i'm tabbing
it anyway!!!

Play with distortion

INTRO:        e---------------------------------
b---------------------------------
g-4-4-4-4-4-4-4-4-----------------
d-4-4-4-4-4-4-4-4-5-5-5-5-5-5-5-5-
a-2-2-2-2-2-2-2-2-5-5-5-5-5-5-5-5-
E-----------------3-3-3-3-3-3-3-3-

e---------------------------------
b---------------------------------
g-----------------2-2-2-2-2-2-2-2-
d-2-2-2-2-2-2-2-2-2-2-2-2-2-2-2-2-
a-2-2-2-2-2-2-2-2-0-0-0-0-0-0-0-0-
E-0-0-0-0-0-0-0-0-----------------
Play 3 times                    let ring

Verse 1:    Pan cake batter girl i've crossed the world with my pastey white skin
at your desert stop dinner top you do me in
oh won't you meet with me pan cake girl we'll cross the world
oh won't you hold my hand and tell me i'm your man.

CHORUS:        e---------------------------------
b---------------------------------
g-4-4-4-4-4-4-4-4-2-2-2-2-2-2-2-2-
d-4-4-4-4-4-4-4-4-2-2-2-2-2-2-2-2-
a-2-2-2-2-2-2-2-2-0-0-0-0-0-0-0-0-
E---------------------------------

e---------------------------------
b---------------------------------
g-4-4-4-4-4-4-4-4-----------------
d-4-4-4-4-4-4-4-4-5-5-5-5-5-5-5-5-
a-2-2-2-2-2-2-2-2-5-5-5-5-5-5-5-5-
E-----------------3-3-3-3-3-3-3-3-
REPEAT

I ask you to come away with me(ahhhhh)
From this desert diner(ahhhhh)
Pan cake batter girl

Play INTRO

                          ?
VERSE 2:    Oh flower of the desert indeal thats where you are
My heart is there and its unfair to drive away in my car
Pan cake girl i'll give you money i'll give you faith
But when you said you just want Jesus I guess its all the same.

CHORUS
INTRO over solo

OUTRO:        It doesn't matter anyway, anyway
Pan cake batter girl it doesn't matter anyway, anyway
anyway, anyway, anyway

e---------------------------------
b---------------------------------
g---------------------------------
d-4-4-4-4-4-4-4-4-----------------
a-2-2-2-2-2-2-2-2-5-5-5-5-5-5-5-5-
E-----------------3-3-3-3-3-3-3-3-
slow down!
e---------------------------------
b---------------------------------
g---------------------------------
d-----------------2-2-2-2-2-2-2-2-
a-2-2-2-2-2-2-2-2-0-0-0-0-0-0-0-0-let ring
E-0-0-0-0-0-0-0-0-----------------