Necrophiliac
Als Coholics
Als Coholics Necrophiliac
Добавлено: — , Просмотров: 266 (+0)

  Добавить в избранное

Necrophiliac

This version of "Necrophiliac" is the one from the live album released
earlier in the year. If you are not familar with the song lyrics, let me
warn you now; if you can't tolerate good-natured humor then perhaps this
song isn't for you! The members of Al's Co-holics don't act out or
promote the actions indicated in this song (at least not to my
knowledge). Strum HARD and have a beer in the name of Al's Co-holics!!
"Necrophiliac"- music (Lasee), lyrics (Buck)
------------------------------------------------!-----------------
-------1-----------1-----------1-----------1----!-----------------
----------2-----------2-----------2-----------2-!------1----------
----2-----------2-----------0-----------0-------!---------2-------
-0-----------0-----------3-----------3----------!---2-------------
------------------------------------------------!-0----------------
*repeat twice-----------------------------------*
----------------------------------------------------------------------
-------------------1-----------1-----------1-----------1--------------
-------1--------------2-----------2-----------2-----------2-----------
----------2-----2-----------2-----------0-----------0-----------------
----2--------0-----------0-----------3-----------3--------------------
-0---------------------------------------------------------
            *repeat twice----------------------------------*
-------------------------------------------------------------
-------------------------------------------------
--------1-----------1-------------------------------
-----------2-----------2---------------------------
-----2-----------2---------------------------------
--0-----------0------------------------------------
Here is the heavy distortion bit at the end of the song....
--------------------------------------------
--------------------------------------------
-------3--3-3-3-3-----------5--5-5-5-5------
-5-5---3--3-3-3-3- 3--3--3--5--5-5-5-5-----
-5-5---1--1-1-1-1--3--3--3--3--3-3-3-3------
-3-3---------------1--1--1------------------------- \
                                                     }REPEAT TWICE
--------------------------------------------        /
--------------------------------------------
-------3--3-3-3-3---------------------------
-5-5---3--3-3-3-3--3--3--3--5--5-5-5-5-------
-3-3---1--1-1-1-1--3--3--3--5--5-5-5-5------
-3-3---------------1--1--1--3--3-3-3-3-------

Ещё песни с аккордами исполнителя/группы «Als Coholics»