Walk in the Park
Als Coholics
Als Coholics Walk in the Park
Добавлено: — , Просмотров: 268 (+0)

  Добавить в избранное

"Tellin it Like it is"
Walk in the Park
(Lasee)

------------2-2-2----------------2-2-2-------------2-2-2------
------------3-3-3----------------3-3-3-------------3-3-3-----
------------2-2-2----------------2-2-2-------------2-2-2------
-------0-0-----------------0-0----------------0-0---------
-0--3----------------0--3---------------0--3---------------
-----------------------------------------------------------

------------------------------------------------------------
-------------2-2-2---------------2-2-2------------------------
-------------2-2-2---------------2-2-2------------------------
-------0-----2-2-2---------0-----2-2-2------------------------
-0--3-----0----------0--3-----0--------------------------------
------------------------------------------------------------

REPEAT THE ABOVE 6 TIMES THROUGHOUT SONG

Lyrics:        I went to the park one day
I believe it was in early May
Most would say I'm A-OK
What else do I have to say
What else do I have to say

Later on in June
Same ol' familiar tune
Met a girl named Sue
Who I thought I really knew
What is a man to do?

I had a 12 pack plus 3
I realized I could barely see
We made out beneath the tree
She was twice the size of me
She was twice the size of me

I showed her my little oak
Which she would grab and stroke
I may have to go for broke
I was ready for an easy poke
I was ready for an easy poke

She was ready to dance
I went to pull down her pants
I had to take a second glance
I must have been in a trance
I must have been in atrance

She seemed to be really tight
Her vagina was really tight
I'd do her both day and night
Who cares if (s)he's a hermaphrodite
Who cares if (s)he's a hermaphrodite

Ещё песни с аккордами исполнителя/группы «Als Coholics»