Ventura Highway
America
AmericaVentura Highway Прислать видеоурок
America Ventura Highway
Добавлено: — , Просмотров: 331 (+0)

 
Добавить в избранное

Ventura Highway

Play this above G  resp. Dmaj7  five times with the endings indicated
in the next staff.
     .    +   .  +   .  +  .    +
-|------------------------------2----|
-|--10h12p10--7--5h7p5--2--2h3--3----|
-|--11h12p11--7--6h7p6--2--2h4-------|
-|-----------------------------------|
-|-----------------------------------|
-|-----------------------------------|
1./3.      2./4.     5.
   G        Dmaj7    G 
                      .  .  +
-|--3-----|--2-----|-----------|
-|--3-----|--2-----|--3--5--7--|
-|--4-----|--2-----|--4--6--7--|
-|--------|--------|-----------|
-|--------|--------|-----------|
-|--------|--------|-----------|
                             chewin' on a piece of grass ...
The first staff is repeated over and over during the verses with
different endings. It manages the progession from Dmaj7  to G .
1.
   G 
    .  .  +  .  +  .
-|-------------------------------|
-|--3--5--7-----8--10------------|
-|--4--6--7-----9--11------------|
-|-------------------------------|
-|-------------------------------|
-|-------------------------------|
                      Tell me..
2.
   G 
-|-------------------------------|
-|--3----------------------------|
-|--4----------------------------|
-|-------------------------------|
-|-------------------------------|
-|-------------------------------|
       Some people say, this town ...
3.
   G 
    .  .  +
-|-------------------------------|-------------|
-|--3--5--7----------------------|-------------|
-|--4--6--7----------------------|-------------|
-|-------------------------------|-------------|
-|-------------------------------|-------------|
-|-------------------------------|-------------|
                   You don't care,      I know___
   Dmaj7 
    .  .  +  .  .       .  .  +  .  .
-|--14----12----9----|--7-----5-----2---|
-|--15----14----10---|--8-----7-----3---|
-|-------------------|------------------|
-|-------------------|------------------|
-|-------------------|------------------|
-|-------------------|------------------|
______                                   Ventura Highway ....
That's all. No big amazing solo, just a bit hammering and sweet
harmony.
Hope that helps.

Ещё песни с аккордами исполнителя/группы «America»