In A Box
Ammonia
Ammonia In A Box
Добавлено: — , Просмотров: 345 (+2)

  Добавить в избранное

"Mint 400"
In A Box
(Allan Balmont, Simon Hensworth, Dave Johnstone)

Intro (play twice without distortion and twice with):
     1     +     2     +     3     +     4     +
e ---------------------------------------------------
B ---------------------------------------------------
G ---x---x---x---10------10--x---x---x---10------10--
D ---x---x---x---10------10--x---x---x---10------10--
A ---x---x---x---8-------8---x---x---x---8-------8---
E ---------------------------------------------------
     1     +     2     +     3     +     4     +
e ---------------------------------------------------
B ---------------------------------------------------
G ---x---x---x---10------x---12------x---12------10--
D ---x---x---x---10------x---12------x---12------10--
A ---x---x---x---8-------x---10------x---10------0---
E ---------------------------------------------------
     1     +     2     +     3     +     4     +
e ---------------------------------------------------
B ---------------------------------------------------
G ---x---x---x---7-------7---x---x---x---7-------7---
D ---x---x---x---7-------7---x---x---x---7-------7---
A ---0---0---0---5-------5---x---x---x---5-------5---
E ---------------------------------------------------
     1     +     2     +     3     +     4     +
e ---------------------------------------------------
B ---------------------------------------------------
G ---x---x---5---5-------5---5-------5---5-------5---
D ---x---x---5---5-------5---5-------5---5-------5---
A ---x---x---3---3-------3---3-------3---3-------3---
E -----------3---3-------3---3-------3---3-------3---

Verse (play twice):
     1     +     2     +     3     +     4     +
e ---------------------------------------------------
B ---------------------------------------------------
G -----------x---10------10----------x---10------10--
D -----------x---10------10----------x---10------10--
A -----------x---8-------8-----------x---8-------8---
E ---------------------------------------------------
                 Sit     in              Far     out
     1     +     2     +     3     +     4     +
e ---------------------------------------------------
B ---------------------------------------------------
G -----------x---10------x---12------x---12------10--
D -----------x---10------x---12------x---12------10--
A -----------x---8-------x---10------x---10------0---
E ---------------------------------------------------
             I   got     a   new         life
     1     +     2     +     3     +     4     +
e ---------------------------------------------------
B ---------------------------------------------------
G -----------x---7-------7-----------x---7-------7---
D -----------x---7-------7-----------x---7-------7---
A -----------x---5-------5-----------x---5-------5---
E ---------------------------------------------------
     1     +     2     +     3     +     4     +
e ---------------------------------------------------
B ---------------------------------------------------
G -------x---5---5-------5---5-------5---5-------5---
D -------x---5---5-------5---5-------5---5-------5---
A -------x---3---3-------3---3-------3---3-------3---
E -----------3---3-------3---3-------3---3-------3---
                             You         can...

Chorus:
     1     +     2     +     3     +     4     +
e ---------------------------------------------------
B ---------------------------------------------------
G ---------------------------------------------------
D ---3-----------3-----------------------------------
A ---3-----------3-----------------------------------
E ---1-----------1-----------------------------------
                             Sit        around
     1     +     2     +     3     +     4     +
e ---------------------------------------------------
B ---------------------------------------------------
G ---------------------------------------------------
D ---2-----------2-----------------------------------
A ---2-----------2-----------------------------------
E ---0-----------0-----------------------------------
                             Hear  the   sound
     1     +     2     +     3     +     4     +
e ---------------------------------------------------
B ---------------------------------------------------
G ---x---x---x---5-------7---x---x---x---5-------7---
D ---x---x---x---5-------7---x---x---x---5-------7---
A ---x---x---x---3-------5---x---x---x---3-------5---
E ---------------------------------------------------
     1     +     2     +     3     +     4     +
e ---------------------------------------------------
B ---------------------------------------------------
G ---x---x---x---5-------7---x---x---x---5-------7---
D ---x---x---x---5-------7---x---x---x---5-------7---
A ---x---x---x---3-------5---x---x---x---3-------5---
E ---------------------------------------------------
                             You          can
     1     +     2     +     3     +     4     +
e ---------------------------------------------------
B ---------------------------------------------------
G ---------------------------------------------------
D ---3-----------3-----------------------------------
A ---3-----------3-----------------------------------
E ---1-----------1-----------------------------------
                             Sit        around
     1     +     2     +     3     +     4     +
e ---------------------------------------------------
B ---------------------------------------------------
G ---------------------------------------------------
D ---2-----------2-----------------------------------
A ---2-----------2-----------------------------------
E ---0-----------0-----------------------------------
                             Hear  the   sound
     1     +     2     +     3     +     4     +
e ---------------------------------------------------
B ---------------------------------------------------
G ---x---x---x---5-------7---x---x---x---5-------7---
D ---x---x---x---5-------7---x---x---x---5-------7---
A ---x---x---x---3-------5---x---x---x---3-------5---
E ---------------------------------------------------
     1     +     2     +     3     +     4     +
e ---------------------------------------------------
B ---------------------------------------------------
G ---x---x---x---5-------7---x---x---x---5-----------
D ---x---x---x---5-------7---x---x---x---5-----------
A ---x---x---x---3-------5---x---x---x---3-----------
E ---------------------------------------------------

Interlude:
     1     +     2     +     3     +     4     +
e ---------------------------------------------------
B ---------------------------------------------------
G ---------------5--------5-----------5--5--------5--
D ---------------5--------3-----------3--5--------3--
A ---------------3--------3-----------3--3--------3--
E ---------------------------------------------------
     1     +     2     +     3     +     4     +
e ---------------------------------------------------
B ---------------------------------------------------
G ------------5--5--------5-/7----------/7-----------
D ------------3--5--------3-/7----------/7-----------
A ------------3--3--------3-/5----------/5-----------
E ---------------------------------------------------

Bridge (play three times):
     1     +     2     +     3     +     4     +
e ---------------------------------------------------
B ---------------------------------------------------
G ---------------10-------10----------10-10-------10-
D ---------------10-------10----------8--8--------8--
A ---------------8--------8-----------8--8--------8--
E ---------------------------------------------------
                 Hooooooo-oooooooooooooooooooooooo...
     1     +     2     +     3     +     4     +
e ---------------------------------------------------
B ---------------------------------------------------
G ---------------10-------10----------10-10-------10-
D ---------------10-------10----------8--8--------8--
A ---------------8--------8-----------8--8--------8--
E ---------------------------------------------------
  ...oooooooooooooooooooooooooooooooooooooooooooooh
     1     +     2     +     3     +     4     +
e ---------------------------------------------------
B ---------------------------------------------------
G ---------------5--------5-----------5--5--------5--
D ---------------5--------3-----------3--5--------3--
A ---------------3--------3-----------3--3--------3--
E ---------------------------------------------------
                 Hooooooo-ooooooh        hooooooo-ooh
     1     +     2     +     3     +     4     +
e ---------------------------------------------------
B ---------------------------------------------------
G ------------5--5--------5-/7----------/7-----------
D ------------3--5--------3-/7----------/7-----------
A ------------3--3--------3-/5----------/5-----------
E ---------------------------------------------------
                 ooooooooh   hoooooooooo-ooooooooooh

Sorry about the "hoo-ooh" bits but it's the only way I could think
of writing what Dave sings there ;)  The rest of the song is just
variations on the above, with & without distortion and wah :)
Enjoy! :)

Ещё песни с аккордами исполнителя/группы «Ammonia»