Black Winter Day
Amorphis
Amorphis Black Winter Day
Добавлено: — , Просмотров: 319 (+62)

 
Добавить в избранное

Intro:
 v/piano copying Rhy.Fig.1.
Fill/intro:
Gtr 2:
1|----------------------
2|.-------------------.-
3|----------------------
4|--2---------5---------
5|.-2--2-2-2--5--5-5-5.-
6|--0--0-0-0--3--3-3-3--

Rhy.Fig.1
  A5           F5             A5            G5 
Gtr 1:
1|-----------------------------------------------------------
2|.-----------------------------------------------------H--8-
3|----------7-9------------------10-9----------------7-7/9---
4|-7-9-10-7----------7---10-9--7------7-10-9----7-9----------
5|.-------------8-10---8---------------------10--------------
6|-----------------------------------------------------------
Gtr 2:
1|----------------------------------------------
2|.---------------------------------------------
3|(5)----------(2)-------------2------------(4)-
4|-7------------3--------------2-------------5--
5|.7------------3--------------0-------------5--
6|-5------------1----------------------------3--
Gtr 1:
  A5           F5             E5   (Second time v/Fill 2)
1|---------------------------:-------------------------:--
2|---------------------------:-------------------------:.-
3|----------7-9--------------:-------------------------:--
4|-7-9-10-7----------7---10-9:---------7-9-7-----------:--
5|--------------8-10---8-----:7-9-10-7--------10-9-5---:.-
6|---------------------------:-------------------------:--
Gtr 2:
1|--------------------------------------------------------
2|------------------------------------------------------.-
3|(5)----------(2)----------------------------------------
4|-7------------3-------------2-------------5-------------
5|-7------------3-------------2--2-2-2------5--5-5-5----.-
6|-5------------1-------------0--0-0-0------3--3-3-3------
Fill 2:
Gtr 1:
1|--------------------------
2|.-----------------------.-
3|-------------------7-9-7--
4|---------------7-9--------
5|.7-9-10-7-9-10----------.-
6|--------------------------
Chorus: (Twice)
Gtr 1:
1|---------------------------------------------------
2|.--------------------------------------------------
3|------------2--------------------------2-----------
4|--------2-3---3-2------------------2-3---3-2-------
5|.-5-3-5-----------5-3-5------5-3-5-----------5-3-5-
6|---------------------------------------------------
Gtr 2:
1|-------------------------------------------
2|.------------------------------------------
3|--7--------------------------7-------------
4|--7-----------3--------------7-----------3-
5|.-5-----------3--------------5-----------3-
6|-(5)----------1-------------(5)----------1-
  "This is how the lucky feel,how the blessed think
  "Like the flat              brink of a cloud
Gtr 1:
1|---------------------------------------------------
2|-------------------------------------------------.-
3|------------2--------------------------------------
4|--------2-3---3-2--------------------2-------------
5|--5-3-5-----------5-3-5----5------------3------5-.-
6|---------------------------------------------------
Gtr 2:
1|---------------------------------------------------
2|-------------------------------------------------.-
3|--7------------------------7------------5-------3--
4|--7-----------3------------7------------5-------3--
5|--5-----------3------------5------------3-------1.-
6|-(5)----------1-----------(5)----------------------
   like  daybreak in spring  the sun on a spring morning".
   like a dark night                         in autumn  ".
Rhy.Fig.2:
Gtr 2:    (4 times)
1|-----------------------------------------------------------------------
2|.--------------------------------------------------------------------.-
3|-----------5-----------------------------------------------------------
4|--7--------5--------7---------7----------7------------------2----------
5|.-7--------3--------7---------5----------7------------------2--------.-
6|--5-----------------5--------------------5------------------0----------
   "                                               But how do I feel..."
   "                                               In my gloomy depths?"
   "This is how the lucky feel.How the blessed think.Like daybreak in spring"
   "Like the flat brink of a cloud,like a dark night in autumn.A black winterday".

(Note: Lyrics and exact Rythm guitars do not match in tabulature placement).
Interlude (4 times)
Gtr 1:
1|---------------------------------------------
2|.------------------------------------------.-
3|---------------------------------------------
4|----8-7------7-8/10----------7---------------
5|.-5-----8-5------------5-7-8---5--5-7-8/10-.-
6|---------------------------------------------
Gtr 2:
1|---------------------------------------------
2|.------------------------------------------.-
3|--7---------------5----7---------------------
4|--7---------------5----7----------------5----
5|.-5---------------3----5----------------5--.-
6|----------------------------------------3----
v/Rhy.Fig 2.
  Piano solo.
v/Rhy.Fig.1.
v/Chorus.
v/Chorus.      (Slow down at the end)
Lyrics: "A Black winterday. No, darker than that, gloomier than
         an autumn day".

Ещё песни с аккордами исполнителя/группы «Amorphis»

 
Последние добавленные подборы