Day Of Your Beliefs
Amorphis
AmorphisDay Of Your Beliefs Прислать видеоурок
Amorphis Day Of Your Beliefs
Добавлено: — , Просмотров: 249 (+0)

  Добавить в избранное

Day Of Your Beliefs

RIFF A (0:00 - 0:38) - Use the clean channel and play softly.
D|----------------------------------------|
A|--8h10--8h10p8--------------------------|
F|---------------9------------------------|
C|--------------------7h9h10--7h9p75-7---|
G|----------------------------------------|
D|----------------------------------------|

D|----------------------------------------|
A|--8h10-10-8-----------------------------|
F|------------9--------------9------------|
C|--------------------7h9h10---7h9p75-7--|
G|----------------------------------------|
D|----------------------------------------|

D|---------------------------------------------------|
A|--8h10-10-8----------------------------------------|
F|------------9--7-7h9-7----------------9------------|
C|-----------------------10-9-7--7-9-10---7h9p75-7--|
G|---------------------------------------------------|
D|---------------------------------------------------|

D|----------------------------------------------------------|
A|--8h10-10-8-----------------------------------------------|
F|------------9--7-7h9-7-------------------9----------------|
C|-----------------------10-9-7--7-9-10-(7)--(7)-7h9p75-7--|
G|----------------------------------------------------------|
D|----------------------------------------------------------|

D|-----------12-------------|
A|--10-12-13----10h12p108--|
F|--------------------------|
C|--------------------------|
G|--------------------------|
D|--------------------------|

RIFF B (0:38 - 0:55) - Distorted from now on.
D|-------------------------------------------------------------------|
A|--8h10-10-10-8-----------------------------------------------------|
F|---------------9---7-7h9-7--------------------9--------------------|
C|---------------------------10-9-7--7-9-10-(7)---(7)--7h9p75-7--9--|
G|-------------------------------------------------------------------|
D|-------------------------------------------------------------------|
 |                                                                   |
D|-------------------------------------------------------------------|
A|-------------------------------------------------------------------|
F|-------------------------------------------------------------------|
C|-------------------------------------------------------------------|
G|--7-7-7-7-7-7-7-7-7-7-7-7-7-7-7-710101010-5-5-5-5-3-3-3-3-2-2-2-2--|
D|--5-5-5-5-5-5-5-5-5-5-5-5-5-5-5-5-8-8-8-8-3-3-3-3-1-1-1-1-0-0-0-0--|

D|-------------------------------------------------------------------|
A|--8h10-10-10-8-----------------------------------------------------|
F|---------------9---7-7h9-7--------------------9--------------------|
C|---------------------------10-9-7--7-9-10-(7)---(7)--7h9p75-7--7--|
G|-------------------------------------------------------------------|
D|-------------------------------------------------------------------|
 |                                                                   |
D|-------------------------------------------------------------------|
A|-------------------------------------------------------------------|
F|-------------------------------------------------------------------|
C|-------------------------------------------------------------------|
G|--7-7-7-7-7-7-7-7-7-7-7-7-7-7-7-710101010-5-5-5-5-7-7-7-7-7-7-7-7--|
D|--5-5-5-5-5-5-5-5-5-5-5-5-5-5-5-5-8-8-8-8-3-3-3-3-5-5-5-5-5-5-5-5--|

RIFF C (0:56 - 1:17)
D|-------------------------------------------------------------------|
A|-------------------------------------------------------------------|
F|-------------------------------------------------------------------|
C|-------------------------------------------------------------------|
G|--7-7-7-7-7-7-7-7-7-7-7-7-7-7-7-710101010-5-5-5-5-3-3-3-3-2-2-2-2--|
D|--5-5-5-5-5-5-5-5-5-5-5-5-5-5-5-5-8-8-8-8-3-3-3-3-1-1-1-1-0-0-0-0--|

D|----------------------------------------------------------|
A|----------------------------------------------------------|
F|----------------------------------------9-----------------|
C|-----------------------------------/7-7---7-7h9h10p75-7--|
G|--7-7-7-7-7-7-7-7-7-7-7-7-7-7-7-7-------------------------|
D|--5-5-5-5-5-5-5-5-5-5-5-5-5-5-5-5-------------------------|
 |                                                          |
D|----------------------------------------------------------|
A|----------------------------------------------------------|
F|----------------------------------------------------------|
C|----------------------------------------------------------|
G|--7-7-7-7-7-7-7-7-7-7-7-7-7-7-7-7-10-------5-------7------|
D|--5-5-5-5-5-5-5-5-5-5-5-5-5-5-5-5--8-------3-------5------|
cont.
D|------------------------------|
A|------------------------------|
F|------------------------------|
C|------------------------------|
G|------------------------------|
D|---5-7-8-------3------/5------|
 |                              |
D|------------------------------|
A|------------------------------|
F|------------------------------|
C|------------------------------|
G|------10-------5-------7------|
D|-------8-------3-------5------|

RIFF D (1:18 - 1:36)
D|----------------------------------------------------------------|
A|----------------------------------------------------------------|
F|----------------------------------------------------------------|
C|--/7--7-5-7--7-5-7--7-5-7--7-5-3-3-3-3-3-3-3-3-3-3-3-3---5-5-5--|
G|--/5--5-3-5--5-3-5--5-3-5--5-3-1-1-1-1-1-1-1-1-1-1-1-1---3-3-3--|
D|-------------------------------------------------------0--------|
                                                         .
D|----------------------------------------------------------------|
A|----------------------------------------------------------------|
F|----------------------------------------------------------------|
C|--/7--7-5-7--7-5-7--7-5-7--7-5-3-3-3-3-3-3-3-3------------------|
G|--/5--5-3-5--5-3-5--5-3-5--5-3-1-1-1-1-1-1-1-1-5-5-5-5-5-5-5-5--|
D|-----------------------------------------------3-3-3-3-3-3-3-3--|
.RIFF B
.RIFF C
.RIFF D 2x
RIFF E (2:52 - 3:31)
D|---------------------------------------|
A|--8h10-10p8----------------------------|
F|------------9-----------9--------------|
C|-----------------7-9-10----7h9p75--7-|
G|---------------------------------------|
D|---------------------------------------|

D|---------------------10--/12-15--17~--|
A|--8h10-10-8------/10-------------------|
F|------------9--------------------------|
C|---------------------------------------|
G|---------------------------------------|
D|---------------------------------------|

D|------------------------------------------------|
A|--10-8h10p8-----8-------------------------------|
F|------------9------------9-------------------9--|
C|------------------7-9-10---7h9p75--7---9-10----|
G|------------------------------------------------|
D|------------------------------------------------|

D|------------------------------------------------------------|
A|--8h10-10-8h10----------------------------------------------|
F|---------------9---------9--------------------9-------------|
C|------------------7-9-10---7h9p75--7--7-9-10---7h9p75--7--|
G|------------------------------------------------------------|
D|------------------------------------------------------------|
 |                                                            |
D|------------------------------------------------------------|
A|------------------------------------------------------------|
F|------------------------------------------------------------|
C|------------------------------------------------------------|
G|----------------------10----5----7---------10----5----7-----|
D|-----------------------8----3----5----------8----3----5-----|
.RIFF D 2x
RIFF F (4:08 - 4:15)
D|-----------------------------------------------|
A|-----------------------------------------------|
F|-----------------------------------------------|
C|-----------------------------------------------|
G|--5-5-5-5-5-5-5-5-5-5-5-5-/101010101010101010--|
D|--3-3-3-3-3-3-3-3-3-3-3-3-/-8-8-8-8-8-8-8-8-8--|
RIFF G (which is actually RIFF B played higher: F becomes G# and so on)
(4:15 - 5:03)
D|-----------------------------------------------------------------------------|
A|--11h13-13p11----------------------------------------------------------------|
F|--------------12---10-10h12p12-----------------------12----------------------|
C|-------------------------------13-12-10--10-12-13(10)--(10)10h12p108-10-12--|
G|-----------------------------------------------------------------------------|
D|-----------------------------------------------------------------------------|
 |                                                                             |
D|-----------------------------------------------------------------------------|
A|-----------------------------------------------------------------------------|
F|-----------------------------------------------------------------------------|
C|---------------------------------------8-8-8-8-------------------------------|
G|--10101010-10101010-10101010-10101010--6-6-6-6--8-8-8-8--6-6-6-6--5-5-5-5----|
D|---8-8-8-8--8-8-8-8--8-8-8-8--8-8-8-8-----------6-6-6-6--4-4-4-4--3-3-3-3----|
4th time end with repeating this 3x while decreasing tempo:
D|---------------------------------|
A|---------------------------------|
F|-----------12--------------------|
C|--10-12-13----10h12p108-10------|
G|---------------------------------|
D|---------------------------------|
 |                                 |
D|---------------------------------|
A|---------------------------------|
F|---------------------------------|
C|---------------------------------|
G|---------13-------8------10------|
D|---------11-------6-------8------|

Ещё песни с аккордами исполнителя/группы «Amorphis»