Drowned Maid
Amorphis
AmorphisDrowned Maid Прислать видеоурок
Amorphis Drowned Maid
Добавлено: — , Просмотров: 317 (+0)

  Добавить в избранное

'Tales From The Thousand Lakes'
Drowned Maid

~ = Vibraatto
^ = Slide

-------------------------------
----5~---3-5~-----5~-----5~----
--2----2------2-5----2-4------- Soita tдtд 4 kertaa..
----------------------------5--
-------------------------------
-------------------------------

-------------------------------
----8~----6-8~-----8~-----8~---
--5----5------5-8----5-7------- Soita tдtд 4 kertaa..
----------------------------8-- (2 ensimmдistд ilman цrinдд)
-------------------------------
-------------------------------
"I went to was at the shore, I went to bathe in the sea"
"And there I, a hen, was lost"
--------------------------------
--------------------------------
-------------------------------- Soita tдtд 6 kertaa..
-------------------------------- (2. kerralla цrinдд ;))
--5-7-8---8-7^8^5--0-1-0--------
--------6----------------3-3-1-0
"I, a bird untimely died"
-4-6-7---7^6^4------------------
-------5-------4-5-4^5----------
-----------------------6-6-4-3-- Soita tдtд 4 kertaa..
--------------------------------
--------------------------------
--------------------------------
"Waters of the sea"
"So much blood of mine
"Fishes of the sea"
"So much flesh of mine"
------------6-5-----------------
----------------8---------------
--7-8-7^8-5--------------------- Soita tдtд 12 kertaa..
--------------------------------
--------------------------------
--------------------------------
"Let not my brother"
"Ever in this world"
"Water is war"
"horse upon the seashore!"
-4-6-7---7^6^4------------------
-------5-------4-5-4^5----------
-----------------------6-6-4-3-- Soita tдtд 4 kertaa..
--------------------------------
--------------------------------
--------------------------------
"Waters of the sea"
"So much blood of mine
"Fishes of the sea"
"So much flesh of mine"
------------6-5-----------------
----------------8---------------
--7-8-7^8-5--------------------- Soita tдtд 8 kertaa..
--------------------------------
--------------------------------
--------------------------------
"Let not my brother"
"Ever in this world"
"Water is war"
"horse upon the seashore!"
-----------------------------------------
-----------------------------------------
--1-0----------------0------------------- Soita tдtд 4 kertaa..
------3-1-3-1----------3-2---2----------- (Viimeisellд kerralla цrinд)
--------------4-3-4--------4---4-3-1---2-
-------------------------------------4---
"Such of death of the young maid"
"End of the fair little hen"
------------------------------------------------
------------------------------------------------
------------------------------------------------ Soita tдtд 4 kertaa..
--------6---------------------------6^7^6-------
--5-7-5----8-7-5-4-5----4-5-7^8-7-8-------8-7-6-
---------------------6--------------------------

------------6-5-----------------
----------------8---------------
--7-8-7^8-5--------------------- Soita tдtд 8 kertaa..
--------------------------------
--------------------------------
--------------------------------
"Let not my brother"
"Ever in this world"
"Water is war"
"horse upon the seashore!"
-4-6-7---7^6^4------------------
-------5-------4-5-4^5----------
-----------------------6-6-4-3-- Soita tдtд 6 kertaa..
--------------------------------
--------------------------------
--------------------------------
"Waters of the sea"
"So much blood of mine
"Fishes of the sea"
"So much flesh of mine"

-----------
-----------
-----------
--3--5--2--
--3--5--2--
--1--3--0--

Ещё песни с аккордами исполнителя/группы «Amorphis»