Grails Mysteries
Amorphis
AmorphisGrails Mysteries Прислать видеоурок
Amorphis Grails Mysteries
Добавлено: — , Просмотров: 232 (+0)

  Добавить в избранное

Grails Mysteries

Intro
E---||----------------------------------------------------------||------
B---||----------------------------------------------------------||------
G---||*--------------------------------------------------------*||------
D---||*--7-----------------------------8-----------------------*||------
A---||---7-----------------------------8------------------------||------
E---||---5-----------------------------6------------------------||------

E-----------------------------------------------------------------------
B-----------------------------------------------------------------------
G-----------------------------------------------------------------------
D-----------------------------------------------------------------------
A-----------------------------------------------------------------------
E-----------------------------------------------------------------------
                                                     2x
E---||-------------------------------------------------||---------------
B---||-------------------------------------------------||---------------
G---||*-----------------------------------------------*||---------------
D---||*--------------2--0-----------------------2--0--*||---------------
A---||---0--0--0--0-----------------1--1--1--1---------||---------------
E---||-------------------------------------------------||---------------

E-----------------------------------------------------------------------
B-----------------------------------------------------------------------
G-----------------------------------------------------------------------
D-----------------------------------------------------------------------
A-----------------------------------------------------------------------
E-----------------------------------------------------------------------

E---||------------------------------------------------------------------
B---||------------------------------------------------------------------
G---||*-----------------------------------------------------------------
D---||*--4-----------------------------5--------------------------------
A---||---4-----------------------------5--------------------------------
E---||---2-----------------------------3--------------------------------
     2x
E----||-----------------------------------------------------------------
B----||-----------------------------------------------------------------
G---*||-----------------------------------------------------------------
D---*||-----------------------------------------------------------------
A----||-----------------------------------------------------------------
E----||-----------------------------------------------------------------
                                                         2x
E---||----------------------------------------------------||------------
B---||----------------------------------------------------||------------
G---||*--------------------------------------------------*||------------
D---||*--------------------------------------------------*||------------
A---||---------------4--2--------------------4--2---------||------------
E---||---2--2--2--2--------------3--3--3--3---------------||------------

E-----------------------------------------------------------------------
B-----------------------------------------------------------------------
G-----------------------------------------------------------------------
D-----------------------------------------------------------------------
A-----------------------------------------------------------------------
E-----------------------------------------------------------------------

E---||------------------------------------------------------------------
B---||------------------------------------------------------------------
G---||*-----------------------------------------------------------------
D---||*-----------------------------------------------------------------
A---||------------------------------------------------------------------
E---||---2-----2--2h3--2------6--6h7--6------9-----9--9h1--0--9/------
             2x
E------------||---------------------------------------------------------
B------------||---------------------------------------------------------
G-----------*||---------------------------------------------------------
D-----------*||---------------------------------------------------------
A------------||---------------------------------------------------------
E---7--7h9---||---------------------------------------------------------

E-----------------------------------------------------------------------
B-----------------------------------------------------------------------
G-----------------------------------------------------------------------
D-----------------------------------------------------------------------
A-----------------------------------------------------------------------
E-----------------------------------------------------------------------

E---||------------------------------------------------------------------
B---||------------------------------------------------------------------
G---||*-----------------------------------------------------------------
D---||*--4-----4--4h5--4------8--8h9--8------1--1-----1--1h1--2-------
A---||------------------------------------------------------------------
E---||------------------------------------------------------------------
                                    2x
E-----------------------------------||----------------------------------
B-----------------------------------||----------------------------------
G----------------------------------*||----------------------------------
D---1--1---/---9--9h1--1--9--------*||----------------------------------
A-----------------------------------||----------------------------------
E-----------------------------------||----------------------------------

E-----------------------------------------------------------------------
B-----------------------------------------------------------------------
G-----------------------------------------------------------------------
D-----------------------------------------------------------------------
A-----------------------------------------------------------------------
E-----------------------------------------------------------------------

E-----------------------------------------------------------------------
B-----------------------------------------------------------------------
G-----------------------------------------------------------------------
D-----------------------------------------------------------------------
A-----------------------------------------------------------------------
E-----------------------------------------------------------------------
                                                     10x
E---||------------------------------------------------||----------------
B---||------------------------------------------------||----------------
G---||*----------------------------------------------*||----------------
D---||*----------------------------------------------*||----------------
A---||---2--2--2--2--5--4--------2--2--2--2--5--47---||----------------
E---||---------------------2--------------------------||----------------

E---||---------------------------------------------------||-------------
B---||---------------------------------------------------||-------------
G---||*-------------------------------------------------*||-------------
D---||*--5--5--5--5--8--7--------5--5--5--5--8--71--0--*||-------------
A---||---------------------5-----------------------------||-------------
E---||---------------------------------------------------||-------------

E---||-------------------------------------------------------||---------
B---||-------------------------------------------------------||---------
G---||*-----------------------------------------------------*||---------
D---||*-----------------------------------------5-----------*||---------
A---||---5--5--5--5--8--7--------5--5--5--5--8-----7---------||---------
E---||---------------------5---------------------------------||---------

E-----------------------------------------------------------------------
B-----------------------------------------------------------------------
G-----------------------------------------------------------------------
D-----------------------------------------------------------------------
A-----------------------------------------------------------------------
E-----------------------------------------------------------------------

E-----------------------------------------------------------------------
B-----------------------------------------------------------------------
G-----------------------------------------------------------------------
D-----------------------------------------------------------------------
A-----------------------------------------------------------------------
E-----------------------------------------------------------------------

E---||---------------------------------------------||-------------------
B---||---------------------------------------------||-------------------
G---||*-------------------------------------------*||-------------------
D---||*-----------5--4----8-----9--8--9--8--5-----*||-------------------
A---||---2--------5--4----8-----9--8--9--8--5--2---||-------------------
E---||---0--x--x--3--2---6-----7--6--7--6--3--0---||-------------------

E---||---------------------------------------------------||-------------
B---||---------------------------------------------------||-------------
G---||*-------------------------------------------------*||-------------
D---||*-------------------------------------------------*||-------------
A---||---------------------------------------------------||-------------
E---||---0-----0-----3--2------6-----7--6--7--6--3--0---||-------------

E-----------------------------------------------------------------------
B-----------------------------------------------------------------------
G-----------------------------------------------------------------------
D-----------------------------------------------------------------------
A-----------------------------------------------------------------------
E-----------------------------------------------------------------------

E---||------------------------------------------------------||----------
B---||------------------------------------------------------||----------
G---||*----------------------------------------------------*||----------
D---||*--2-----2-----5--4------8-----9--8--9--8--5--2-----*||----------
A---||------------------------------------------------------||----------
E---||------------------------------------------------------||----------

E------------||---------------------------------------------------------
B------------||---------------------------------------------------------
G------------||*--------------------------------------------------------
D------------||*--------------------------------------------------------
A------------||---------------------------------------------------------
E------------||---------------------------------------------------------

Ещё песни с аккордами исполнителя/группы «Amorphis»