In The Beginning
Amorphis
AmorphisIn The Beginning Прислать видеоурок
Amorphis In The Beginning
Добавлено: — , Просмотров: 281 (+0)

  Добавить в избранное

"Tales from the thousand lakes"
In The Beginning

Tuning:
Tune all strings a 1 1/2 step down                                   E==C#
b = bend until it sounds like ( no. of the higher fret )             B==G#
r = release the bend                                                 G==E
h = hammer on                                                        D==B
 = slide down                                                       A==F#
                                                                     E==C#
RIFF A:
E--------------------------------------|
B--------------------------------------|
G-2------------------------------------|
D-2------h--2---------3---------5------|
A-0-----0^2-2------h--3------h--5------|
E-----------0-----0^1-1-----1^3-3------|
         |         |         |
         |---------|---------|
                KEYBOARD
WITH RIFF A
LEAD 1:
E------------------------------------------------------------------|
B------------------------------------------------------------------|
G------------------------------------------------------------------|
D------------------------------------------------------------------|
A-7----------------7----------------8--7-8-10-8-7---------7--------|
E----10-8-7-8-7-5-----10-8-7-8-7-5----------------10--8-7---10-8-7-|

E---------------------------|
B---------------------------|
G---------------------------|
D--3--3--3--5--5--5--2------|
A---------------------------|
E--1--1--1--3--3--3--0------|
                      continues into RIFF B
RIFF B:
E-----------------------------------------|
B-----------------------------------------|
G-----------------------------------------|
D-2----------4---5---------7---9---------2|
A-2----------4---5---------7---9---------2|
E-0----------2---3---------5---7---------0|
WITH RIFF B
LEAD 2:    (sound nice with the bends)
E----------------------------------|
B----------------------------------|
G10b12r10-8-7-----7b8r7------------|
D-----------------------9-7-9------|
A----------------------------------|
E----------------------------------|
                         last time pick slide
RIFF C:
E-----|-----|-----|-----|
B-----|-----|-----|-----|
G-----|-----|--5--|--4--|
D--2--|--5--|--5--|--4--|
A--2--|--5--|--3--|--2--|
E--0--|--3--|-----|-----|
WITH RIFF C
LEAD 3:
E--------------------------------------------------------------------|
B--8-7-7-5-8-7-7-5-10-8-8-7---5-7-8--8-7-7-5-8-7-7-5-7-5-------5-7-8-|
G---------------------------7----------------------------7-6-7-------|
D--------------------------------------------------------------------|
A--------------------------------------------------------------------|
E--------------------------------------------------------------------|
RIFF D:
E------------------------------------|--------------------------------|
B------------------------------------|--------------------------------|
G------------------------------------|--------------------------------|
D------------------------------------|--------------------------------|
A-2-2---h-h--2------2-2---h-h--2-----|-2-2---h-h--2------2-2-x-5-x-5--|
E-0-0--0^3^5---5-3--0-0--0^3^5---5---|-0-0--0^3^5---5-3--0-0-x-3-x-3--|
RIFF E
E-----|-----|-----|-----|
B-----|-----|-----|-----|
G-----|-----|-----|-----|
D-----|-----|--2--|-----|
A--4--|--2--|--0--|--5--|
E--2--|--0--|-----|--3--|
WITH RIFF E
LEAD 4:
E-----------------|
B-----------------|
G-----------------|
D/9-9-8-8-6-6-4---|
A-----------------|
E-----------------|
RIFF F:
E-----|------|------|-----|
B-----|------|------|-----|
G-----|------|--10--|--9--|
D--7--|--10--|--10--|--9--|
A--7--|--10--|---8--|--7--|
E--5--|---8--|------|-----|
WITH RIFF F
LEAD 5:
E------------------------------------------------------------------------------------------|
B------------------------------------------------------------------------------------------|
G11-10-10-8-11-10-10-8-13-11-11-10----8-10-11--11-10-10-8-11-10-10-8-10-8---------8-10-11--|
D----------------------------------10-------------------------------------10-9-10----------|
A------------------------------------------------------------------------------------------|
E------------------------------------------------------------------------------------------|
ENDING:
E-------------------------------------------------|
B-------------------------------------------------|
G-------------------------------------------------|
D---5-5----5-5-----9-9-9-9-9-9-9-9-----9-9-9-9---|
A-x-5-5--x-5-5-----7-7-7-7-7-7-7-7-----7-7-7-7---|
E-x-3-3--x-3-3-----0-0-0-0-0-0-0-0-----0-0-0-0---|

Ещё песни с аккордами исполнителя/группы «Amorphis»