In To Hiding
Amorphis
AmorphisIn To Hiding Прислать видеоурок
Amorphis In To Hiding
Добавлено: — , Просмотров: 198 (+0)

  Добавить в избранное

In To Hiding

Intro:
Git.1 (lead)
|----------------------------------------------------|
|----------------------------------------------------|
|----------------------------------------------------|
|---4-2-----2----------------------------------------|
|-------5-4---5-4-2---------2---2-4------------------|
|-------------------3-2-3-5---5----------------------|
Git.2 (rythm)
|----------------------------------------------------|
|----------------------------------------------------|
|---4--7--6------------------------------------------|
|---4--7--6---5--4-----------------------------------|
|---2--5--4---5--4-----------------------------------|
|-------------3--2-----------------------------------|

Interlude 1:
* This part is played 4 times. The three first you play with
  lead and rythm-guitar. The last time both guitars plays
  the rythm-part.
Git.1 (lead)
|----------------------------------------------------|
|----------------------------------------------------|
|----------------------------------------------------|
|----------------------------------------------------|
|---------4------------1-----------------------------|
|-0-0-0-0----3--2-2-2-2------------------------------|
Git.2 (rythm)
|----------------------------------------------------|
|----------------------------------------------------|
|---------6------------------------------------------|
|---------6--5--4------------------------------------|
|---------4--5--4------------------------------------|
|-0-0-0-0----3--2------------------------------------|

Interlude 2:
Git.1 (lead)
|--------------------------------------------------------------------------|
|--------------------------------------------------------------------------|
|-------------------------------------------------------4-5-4h5p4---4------|
|---------------6-7---------------------------------6-7-----------7---7----|
|-----------7-8---------------7-8-7-5-----------7-8---------------------8--|
|-0-00-0-00---------0-00-0-00---------0-00-0-00----------------------------|
Git.2 (rythm)
|----------------------------------------------------|
|----------------------------------------------------|
|----------------------------------------------------|
|----------------------------------------------------|
|----------------------------------------------------|
|-0-00-0-00-etc-etc----------------------------------|
Git.1 and git.2
|--------------------------------------------------------------------------|
|--------------------------------------------------------------------------|
|-------------------------------------------------------4-5-4h5p4---4------|
|---------------6-7---------------------------------6-7-----------7---7----|
|-----------7-8---------------7-8-7-5-----------7-8---------------------8--|
|-00000000-----------00000000----------00000000----------------------------|
Git.1
|---------------------------------------------------------7-8-7h8p7---7-------|
|----------------9-10--------------------------------9-10-----------9---10----|
|--99999999-9-10-----99999999-9-10-9-7-99999999-9-10-----------------------10-|
|-----------------------------------------------------------------------------|
|-----------------------------------------------------------------------------|
|-----------------------------------------------------------------------------|
Git.2
|--------------------------------------------------------------------------|
|--------------------------------------------------------------------------|
|-------------------------------------------------------4-5-4h5p4---4------|
|---------------6-7---------------------------------6-7-----------7---7----|
|-----------7-8---------------7-8-7-5-----------7-8---------------------8--|
|--00000000----------00000000----------00000000----------------------------|

Verse:
Git.1 (lead)
* This part is played 4 times. The rythm-guitar plays two different rythms.
  The islander slips.....
|------------------------------------------------------|
|------------------------------------------------------|
|------------------------------------------------------|
|------9-----------------------------------------------|
|-7-7h9--10-9-7---------------------7---------------10-|
|--------------10-10h12-7-10-8--8h10--10-8--7--7h8p7---|
Git.2 (rythm)
|----------------------------------------------------|
|----------------------------------------------------|
|----------------------------------------------------|
|-2--5--7--9-----------------------------------------|
|-2--5--7--9-----------------------------------------|
|-0--3--5--7-----------------------------------------|

Interlude 3:
Git.1 (lead)
|----------------------------------------------------|
|----------------------------------------------------|
|----------------------------------------------------|
|-------9---------------------9----------------------|
|-9-7-9---10--9-10-9-7--9-7-9---7--7-10-9------------|
|-----------------------------------------7----------|
Git.2 (rythm)
|----------------------------------------------------|
|----------------------------------------------------|
|-4-----2--------------------------------------------|
|-4--5--2--4-----------------------------------------|
|-2--5--0--4-----------------------------------------|
|----3-----2-----------------------------------------|

Interlude 4:
Git.1 (lead)
|----------------------------------------------------|
|----------------------------------------------------|
|----------------------------------------------------|
|-------8-------------------8------------------------|
|-8-6-8---9--8-9-8-6--8-6-8---6--6-9-8---------------|
|--------------------------------------6-------------|
Git.2 (rythm)
|----------------------------------------------------|
|----------------------------------------------------|
|-3--------------------------------------------------|
|-3--4--6--3-----------------------------------------|
|-1--4--6--3-----------------------------------------|
|----2--4--1-----------------------------------------|

Outro:
* Not sure about this part
Git.1 and git.2
|----------------------------------------------------|
|----------------------------------------------------|
|----------------------------------------------------|
|-------------------------------------------9-7~-----|
|-------------------8-7~--------------------7-5~-----|
|-0-00000-00000-000-6-5~--0-00000-00000-000----------|

Finish:
Git.1 and git.2
|----------------------------------------------------|
|----------------------------------------------------|
|----------------------------------------------------|
|-9-99999-7-9----------------------------------------|
|-7-77777-5-7----------------------------------------|
|----------------------------------------------------|

Song-structure:
Intro       } x4
Interlude 1 } x4
Interlude 2 } x8 (4,2,2)
Verse x4
Interlude 3 } x4
Interlude 4 } x4
Outro

Ещё песни с аккордами исполнителя/группы «Amorphis»