Karelia
Amorphis
AmorphisKarelia Прислать видеоурок
Amorphis Karelia
Добавлено: — , Просмотров: 239 (+0)

 
Добавить в избранное

'The Karelian Isthmus'
Karelia

Strings 1 & 2 for Guitar 1 (12-string acous.)
Strings 3-6 for Guitar 2 (6 string acous.)

Fig.1 Em 
1|-7-5-7--0-2-3-0--7-5-7--0-2-3-0--7-5-7--0-2-3-0--7-5-7--0-2-3-0
2|-8-7-8--0-0-5-0--8-7-8--0-0-5-0--8-7-8--0-0-5-0--8-7-8--0-0-5-0
3|---------------------------------------------------------------
4|-9-7-9--2-4-5-2--9-7-9--2-4-5-2--9-7-9--2-4-5-2--9-7-9--2-4-5-2
5|-7---------------7---------------7---------------7-------------
6|-0---------------0---------------0---------------0-------------

Fig.2 Am 
1|-12-10-12--5-7-8 -5--12-10-12--5-7-8- 5--12-10-12--5-7-8 -5--12-10-12--5-7-8 -5
2|-13-12-13--5-5-10-5--13-12-13--5-5-10-5--13-12-13--5-5-10-5--13-12-13--5-5-10-5
3|-9 -7 -9 --2-4-5 -2--9 -7 -9 --2-4-5 -2--9 -7 -9 --2-4-5 -2--9 -7 -9 --2-4-5 -2
4|-7-------------------7-------------------7-------------------7-----------------
5|-0-------------------0-------------------0-------------------0-----------------
6|-------------------------------------------------------------------------------

Play Fig.1 and Fig.2. Repeat Fig.1 and slow down the last notes.

Ещё песни с аккордами исполнителя/группы «Amorphis»