My Kantele
Amorphis
AmorphisMy Kantele Прислать видеоурок
Amorphis My Kantele
Добавлено: — , Просмотров: 318 (+0)

 
Добавить в избранное

"Elegy"
My Kantele

Acoustic.
Great song! And I can proudly say that this is very accurate!!!!
Riff 1-I figured this out by watching the video clip over and  over!
|----------------------------------------------------------------------|
|--3-------3-----------3-----3--------------------------3--------3-----|
|--2--2----0h2p0---------0-----0--------------------------2--------2---|
|--0--0h3--0------3-2------2------3-2h3p2-0--3-2-----0--------0--------|
|-------------------------------------------------3--------------------|
|----------------------------------------------------------------------|
Truly they lie etc.
Then just play these chords...You know the timing...
Am Em C D  P.S: Don't strum the first string in the D  chord...
Then Riff 1 again and then chorus again and then comes the fun part...
I don't know what this weird instrument is called but it's huge!!!
Here it is...
|------------------------------8------------------------------------6-------
|---10------10------8-----8------8---8-----8------8------6-----6------6---6-
|------7-------7------7----------------------7------7------7----------------
|-0--------0-------0----0---0------0-----0------0------0-----0----0-----0---
|---------------------------------------------------------------------------
|---------------------------------------------------------------------------

-------------------------------5-------------------------------------------|
------6------6------5-----5------5--------3-----3----------6---------------|
--------7------7------7---------------0-0---0-0-------5------5---5---------|
---0-------0------0-----0----0-----0--------------0-3---3------3-----------|
---------------------------------------------------------------------------|
---------------------------------------------------------------------------|
And here are the chords for this section...Timing is really easy
--5-----3------1---0----------1-------------
--3-----3------3---1----------1-------------
--2-----0------2---0----------4-------------
--0-----0------0---2----5-----3-------------
--------2----------3----5-----3-------------
--------3---------------3-----1-------------
Play this last riff about a thousand times!

Ещё песни с аккордами исполнителя/группы «Amorphis»