Relief
Amorphis
AmorphisRelief Прислать видеоурок
Amorphis Relief
Добавлено: — , Просмотров: 274 (+0)

  Добавить в избранное

Relief

E-tuning
p=pull off
b=bend
.=mute

Riff 1         Guitar 1                          Play 2x
e|-------------------------------------------------------|
B|-------------------------------------------------------|
G|-9--9--9--7p9p7--5--4--5--4--2--5-----4-------4b-------|
D|-----------------------------------7-------7-----6--7--|
A|-------------------------------------------------------|
E|-------------------------------------------------------|
               Guitar 2
e|----------------------------------------------------------------| I'm not
B|----------------------------------------------------------------| sure about
G|----------------------------------------------------------------| this part
D|----------------------------------------------------------------|
A|----------------------------------------------------------------|
E|-5-5-5-5-5-5-5-5-5-5-5-5-5-5-5-5-5-5-0-0-0-0-0-0-0-5-5-5-5-5-5--|
   . . . . . . . . . . . . . . . . . . . . . . . . . . . . . . .
Riff 2         Guitar 1                          Play 2x
e|-------------------------------------------------------|
B|-------------------------------------------------------|
G|-10-10-10-10-10-9p10p9-7--5--4--2--5-----4-----4b------|
D|--------------------------------------7-----7-----6--7-|
A|-------------------------------------------------------|
E|-------------------------------------------------------|
               Guitar 2
e|-------------------------------------------------------|
B|-------------------------------------------------------|
G|-------------------------------------------------------|
D|-------------------------------------------------------|
A|--------12----------------7--------------2-----------7-|
E|--------10----------------5--------------0-----------5-|
Play Riff 1 } 2x
Play Riff 2 } 2x
Riff 3           Guitar 1  play 8x         Guitar 2 ???
e|------------------------------------|------------------------------------|
B|------------10------------10--------|------------------------------------|
G|--2--5(p2)------9---2--5------9b--7-|------------------------------------|
D|------------------------------------|------------------------------------|
A|------------------------------------|------------------------------------|
E|------------------------------------|------------------------------------|
         parenthesis = play sometimes

Ещё песни с аккордами исполнителя/группы «Amorphis»