Summers End
Amorphis
AmorphisSummers End Прислать видеоурок
Amorphis Summers End
Добавлено: — , Просмотров: 248 (+0)

  Добавить в избранное

Summers End

Intro
e|-----------------------|
B|-----------------------|
G|---------------------9~| } Play 12 times
D|-6H8--8--8--6h8-6h8----|
A|-----------------------|
D|-----------------------|
When playing this riff 12th time, slide from 21 or 24 to 0 on A-string.

Main part
Guitar 1
e|-----------------------|-----------------------|-----------------------|-----------------------|
B|-----------------------|-----------------------|-----------------------|-----------------------|
G|8--8--8--8--6--6--5--5-|-----------------------|8--8--8--8--6--6--5--5-|-----------------------|
D|8--8--8--8--6--6--5--5-|6--6--6--6--6--6--6--6-|8--8--8--8--6--6--5--5-|6--6--6--6--6--6--6--6-|
A|6--6--6--6--4--4--3--3-|6--6--6--6--6--6--6--6-|6--6--6--6--4--4--3--3-|6--6--6--6--6--6--6--6-|
D|-----------------------|6--6--6--6--6--6--6--6-|-----------------------|6--6--6--6--6--6--6--6-|
Guitar 2
e|-----------------------|-----------------------|-----------------------|-----------------------|
B|-----------------------|-----------------------|-----------------------|-----------------------|
G|-----------------------|-----------------------|-----------------------|-----------------------|
D|8--8--8--8--8--8--8--8-|8--8--8--8--8--8--8--8-|8--8--8--8--8--8--8--8-|8--8--8--8--8--8--8--8-|
A|8--8--8--8--8--8--8--8-|8--8--8--8--8--8--8--8-|8--8--8--8--8--8--8--8-|8--8--8--8--8--8--8--8-|
D|8--8--8--8--8--8--8--8-|8--8--8--8--8--8--8--8-|8--8--8--8--8--8--8--8-|8--8--8--8--8--8--8--8-|
Guitar 1
e|-----------------------|-----------------------|-----------------------|-----------------------|
B|-----------------------|-----------------------|-----------------------|-----------------------|
G|8--8--8--8--6--6--5--5-|-----------------------|8--8--8--8--6--6--5--5-|-----------------------|
D|8--8--8--8--6--6--5--5-|6--6--6--6--6--6--6--6-|8--8--8--8--6--6--5--5-|6--6--6--6--6--6--6--6-|
A|6--6--6--6--4--4--3--3-|6--6--6--6--6--6--6--6-|6--6--6--6--4--4--3--3-|6--6--6--6--6--6--6--6-|
D|-----------------------|6--6--6--6--6--6--6--6-|-----------------------|6--6--6--6--6--6--6--6-|
Guitar 2
e|-----------------------|-----------------------|-----------------------|-----------------------|
B|-----------------------|-----------------------|-----------------------|-----------------------|
G|-----------------------|-----------------------|-----------------------|-----------------------|
D|4--4--4--4--4--4--4--4-|4--4--4--4--4--4--4--4-|4--4--4--4--4--4--4--4-|4--4--4--4--4--4--4--4-|
A|4--4--4--4--4--4--4--4-|4--4--4--4--4--4--4--4-|4--4--4--4--4--4--4--4-|4--4--4--4--4--4--4--4-|
D|4--4--4--4--4--4--4--4-|4--4--4--4--4--4--4--4-|4--4--4--4--4--4--4--4-|4--4--4--4--4--4--4--4-|
Guitar 1
e|-----------------------|-----------------------|-----------------------|-----------------------|
B|-----------------------|-----------------------|-----------------------|-----------------------|
G|8--8--8--8--6--6--5--5-|-----------------------|8--8--8--8--6--6--5--5-|-----------------------|
D|8--8--8--8--6--6--5--5-|6--6--6--6--6--6--6--6-|8--8--8--8--6--6--5--5-|6--6--6--6--6--6--6--6-|
A|6--6--6--6--4--4--3--3-|6--6--6--6--6--6--6--6-|6--6--6--6--4--4--3--3-|6--6--6--6--6--6--6--6-|
D|-----------------------|6--6--6--6--6--6--6--6-|-----------------------|6--6--6--6--6--6--6--6-|
Guitar 2
e|-----------------------|-----------------------|-----------------------|-----------------------|
B|-----------------------|-----------------------|-----------------------|-----------------------|
G|-----------------------|-----------------------|-----------------------|-----------------------|
D|1--1--1--1--1--1--1--1-|1--1--1--1--1--1--1--1-|1--1--1--1--1--1--1--1-|6--6--6--6--6--6--6--6-|
A|1--1--1--1--1--1--1--1-|1--1--1--1--1--1--1--1-|1--1--1--1--1--1--1--1-|6--6--6--6--6--6--6--6-|
D|1--1--1--1--1--1--1--1-|1--1--1--1--1--1--1--1-|1--1--1--1--1--1--1--1-|6--6--6--6--6--6--6--6-|
Guitar1 & Guitar2  2 times.
e|-----------------------|-----------------------|-----------------------|-----------------------|
B|-----------------------|-----------------------|-----------------------|-----------------------|
G|12-----12----12--12----|10-----10----10--10----|-9------9-----9---9----|-7------7-----7---7----|
D|12-----12----12--12----|10-----10----10--10----|-9------9-----9---9----|-7------7-----7---7----|
A|10-----10----10--10----|-8------8-----8---8----|-7------7-----7---7----|-5------5-----5---5----|
D|-----------------------|-----------------------|-----------------------|-----------------------|
Guitar 1 & Guitar 2
e|-----------------------|-----------------------|-----------------------|
B|-----------------------|-----------------------|-----------------------|
G|-----------------------|-----------------------|-----------------------|
D|----8----8----8----8---|3----3----3----3----5--|5--5-3-5-3-5--5--5--5--|
A|----8----8----8----8---|3----3----3----3----5--|5--5-3-5-3-5--5--5--5--|
D|5-7-8----8----8----8---|3----3----3----3----5--|5--5-3-5-3-5--5--5--5--|

Ещё песни с аккордами исполнителя/группы «Amorphis»