The Exile Of the Sons Of Uisliu
Amorphis
AmorphisThe Exile Of the Sons Of Uisliu Прислать видеоурок
Amorphis The Exile Of the Sons Of Uisliu
Добавлено: — , Просмотров: 229 (+0)

  Добавить в избранное

The Exile Of the Sons Of Uisliu
(Music & Lyrics E. Holopainen)

 Tuning e -- c             Legend:
        B -- G                     h - hammer on
        G -- D#                    p - pull off
        D -- A#                    . - palm muting
        A -- F                  /\/\ - pick scrape
        E -- C

      Riff A
e|---|-----------------------------|---------------------------------|
B|---|-----------------------------|---------------------------------|
G|---|*----------------------------|---------------------------------|
D|-5-|*----------------------------|---------------------------------|
A|-5-|-----------7-------------7---|----------7-------------7--------|
E|-3-|--5-5-5-5----5--5-5-5-5----5-|-7-7-7-7----7--7-7-7-7----7------|
        . . . .    .  . . . .    .   . . . .    .  . . . .    .
e|------------------------------|----------------------------------------|
B|------------------------------|----------------------------------------|
G|------------------------------|---------------------------------------*|
D|------------------------------|---------------------------------------*|
A|------------------------------|----------------------------------------|
E|-8-8-8-8--12-8--8-8-8-8--12-8-|-10-10-10-10--12-10--10-10-10-10--12-10-|
   . . . .     .  . . . .     .    .  .  .  .      .   .  .  .  .      .
  Gtr.1   Riff B
e|-----------------|----------------|----------------|-----------------|
B|-----------------|----------------|----------------|-----------------|
G|-----------------|----------------|----------------|-----------------|
D|-----------------|----------------|----------------|-----------------|
A|--5--------------|---9------------|--10------------|--12-------------|
E|--3--------------|---7------------|--8-------------|--10-------------|
 |                                                                     |
 |Gtr.2                                                                |
e|-----------------|----------------|----------------|-----------------|
B|-----------------|----------------|----------------|-----------------|
G|-----9--7-9-7-9--|----9--7-9-7-9--|----9--7-9-7-9--|--7--9--7-9-7-9--|
D|--7--------------|--9-------------|-10-------------|-----------------|
A|-----------------|----------------|----------------|-----------------|
E|-----------------|----------------|----------------|-----------------|
  Gtr.1     Riff C1
e|---------------------------------|------------------------------------|
B|---------------------------------|------------------------------------|
G|---------------------------------|------------------------------------|
D|--7--------------------------7-5-|-7--------------------------5-7-----|
A|--7--------------------------7-5-|-7--------------------------5-7-----|
E|--5--------------------------5-3-|-5--------------------------3-5-----|
 |                                                                      |
 |Gtr.2                                                                 |
e|---------------------------------|------------------------------------|
B|---------------------------------|------------------------------------|
G|---------------------------------|------------------------------------|
D|---------------------------------|------------------------------------|
A|------------7-5------------------|-----------7-5----------------------|
E|--8-7h8p7-5-----7-8-7h8p7-5--7-3-|-8-7h8p7-5-----7-8-7h8p7--5-3-5-----|

  Gtr.1     Riff C2
e|---------------------------------|------------------------------------|
B|---------------------------------|------------------------------------|
G|---------------------------------|------------------------------------|
D|--5--------------------------5-3-|-5--------------------------3-5-----|
A|--5--------------------------5-3-|-5--------------------------3-5-----|
E|--3--------------------------3-1-|-3--------------------------1-3-----|
 |                                                                      |
 |Gtr.2                                                                 |
e|---------------------------------|------------------------------------|
B|---------------------------------|------------------------------------|
G|---------------------------------|------------------------------------|
D|---------------------------------|------------------------------------|
A|------------5-3------------------|-----------5-3----------------------|
E|--6-5h6p5-3-----5-6-5h6p5-3--5-1-|-6-5h6p5-3-----5-6-5h6p5--3-1-3-----|

  Gtr.1&2  Fill 2
e|-----------------|------------------|
B|-----------------|------------------|
G|-----------------|------------------|
D|-----------------|------------------|
A|--2-(let ring)---|------------------|
E|--0--------------|-/\/\/\/\/\/\/\---|
                     p.s.
   after pickscrape
  Gtr.1&2 (only once) Fill 3
e|-----------------------------------------------------|
B|-----------------------------------------------------|
G|-----------------------------------------------------|
D|-----------------------------------------------------|
A|--2--------------------------------------------4--5--|
E|--0---0--0-0-0--0----0-0-0-0--0--0----0-0-0-0--2--3--|
        .  . . .  .    . . . .  .  .    . . . .

  Gtr.1&2      Riff D
e|-----------------------------------------------------|
B|-----------------------------------------------------|
G|*---------------------------------------------------*|
D|*---------------------------------------------------*|
A|--2--------------------------------------------4--5--|
E|--0---0-0-0-0--0--0---0-0-0-0--0--0---0-0-0-0--2--3--|
        . . . .  .  .   . . . .  .  .   . . . .
  Gtr.1       Riff E
e|------------------------|------------------------|
B|------------------------|------------------------|
G|--9---------------------|------------------------|
D|--9---------------------|-10------------------9--|
A|--7---------------------|-10------------------9--|
E|------------------------|--8------------------7--|
 |                                                 |
 |Gtr.2                                            |
e|------------------------|------------------------|
B|------------------------|------------------------|
G|------------------------|------------------------|
D|-----------7-5h7p5-4----|------------------------|
A|--7-9-10-9-----------7--|--------7---------------|
E|------------------------|--8--10---10--8--10--7--|
  Gtr.1       Riff F
e|-----------------|------------------|------------------|----------------|
B|-----------------|------------------|------------------|----------------|
G|-----------------|------------------|------------------|----------------|
D|-10--------------|--12--------------|--13--------------|--15------------|
A|-10--------------|--12--------------|--13--------------|--15------------|
E|--8--------------|--10--------------|--11--------------|--13------------|
 |                                                                        |
 |Gtr.2                                                                   |
e|-----------------|------------------|------------------|----------------|
B|-----------------|------------------|------------------|----------------|
G|---11--9-11-9-11-|----11--9-11-9-11-|----11--9-11-9-11-|-9-11--9-11-9-11|
D|-9---------------|-11---------------|-12---------------|----------------|
A|-----------------|------------------|------------------|----------------|
E|-----------------|------------------|------------------|----------------|

e|-----------||
B|-----------||
G|-----------||
D|-10--------||
A|-10--------||
E|--8--------||

Lyrics:        A wave the sound of Noisiu`s voice
His singing was ever sweet ...
Noisiou`s grave now has been made
And the accompaniment was mournful
For him I poured out - hero of heroes
The deadly drink that killed him
Dear his short shining hair
A hansome man even very beatiful
Dear the grey eyes that woman loved
Fierce they were foes
Dear the grey eyes

Song Structure:
Riff A
Riff B
Riff C1
Riff C2
Fill 2
Fill 3
Riff D
Riff E & Harmony part (not included)
Riff D
Riff A
Riff B
Riff F

Ещё песни с аккордами исполнителя/группы «Amorphis»