Hedonism
Anansie Skunk
Anansie SkunkHedonism Прислать видеоурок
Anansie Skunk Hedonism
Добавлено: — , Просмотров: 307 (+0)

  Добавить в избранное

Hedonism (JUST BECAUSE YOU FEEL GOOD)

Complete song

THE INTRO INTRO AND VERSES
E:--------8--8--8--8----8--8--8--:-------------------------------:
B:--------9--8--9--11---9--8--9--:---------8---------------------:
G:------------H------------------:---------8------------8----8---:
D:-------------------------------:---H---------H-----------------:
A:---8-8-------------------------:--8--10-----8--10--10---10---10:
E:-------------------------------:-------------------------------:

E:--------8--8--8--8----8--8--8--:-------------------------------:
B:--------9--8--9--11---9--8--9--:---------8-------------H--P----:
G:------------H------------------:---------8---------H--8-10-8---:
D:-------------------------------:---H---------H---8-10--------8-:
A:---8-8-------------------------:--8--10-----8-10---------------:
E:-------------------------------:-------------------------------:

E:-----8----8---8---8---8-:---8----8----8----8----8----8----8----8-:
B:-----9--9---9---9---9---:11---11---11---11---11---11---11---11---:
G:------------------------:----------------------------------------:
D:------------------------:----------------------------------------:
A:-8-8--------------------:----------------------------------------:
E:------------------------:----------------------------------------:

The Chorus:
Dist the guitar and rock!
E:---------------:-----------------:-------------:-----------------:
B:---------------:-----------------:-------------:-----------------:
G:--8--8--8-8--3-:--3--3-3-3-3-3-3-:-------------:-----------------:
D:--8--8--8-8--3-:--3--3-3-3-3-3-3-:--3-3-3-3--6-:--6--6-6-6-6-6-6-:
A:--6--6--6-6--1-:--1--1-1-1-1-1-1-:--3-3-3-3--6-:--6--6-6-6-6-6-6-:
E:---------------:-----------------:--1-1-1-1--4-:--4--4-4-4-4-4-4-:

E:---------------:-----------------:-------------:
B:---------------:-----------------:-------------:
G:--8--8--8-8--3-:--3--3-3-3-3-3-3-:-------------:
D:--8--8--8-8--3-:--3--3-3-3-3-3-3-:--3-3-3-3--6-:
A:--6--6--6-6--1-:--1--1-1-1-1-1-1-:--3-3-3-3--6-:
E:---------------:-----------------:--1-1-1-1--4-:
And now we got to the solo:
If you got a wah-wah pedal it's time to use it
E:--------------------------------:-13-10-------------------------------:
B:--------------------------------:---P----13-10---11-10----------------:
G:-------10----H---10---H---10----:----------P------P----12-10---H---10-:
D:-------12--10-12----10-12----10-:------------------------P---10-12----:
A:-10-10--------------------------:-------------------------------------:
E:--------------------------------:-------------------------------------:

E:-----------------------------------:---------------------------------------:
B:-----------------------------------:---P------------P------------P---------:
G:-------10----H---10-------10---P---:-12-10----10--12-10----10--12-10----10-:
D:-------12--10-12----10-12----12-10-:-------12-----------12-----------12----:
A:-10-10-----------------------------:---------------------------------------:
E:-----------------------------------:---------------------------------------:

E:--------------------------------:-13-10-------------------------------:
B:--------------------------------:---P----13-10---11-10----------------:
G:-------10----H---10---H---10----:----------P------P----12-10---H---10-:
D:-------12--10-12----10-12----10-:------------------------P---10-12----:
A:-10-10--------------------------:-------------------------------------:
E:--------------------------------:-------------------------------------:

E:---------------------------------:----------------------------
B:---------------------------------:-13-13-13-13-13-13-13-13-13-
G:-------10--------10--------10----:----------------------------
D:-------12--10-12-----10-12----10-:----------------------------
A:-10-10---------------------------:----------------------------
E:---------------------------------:----------------------------

THE LAST CHORUS
Play this last in F instead
Play this 3 times
E:-------------:----------------:------------:----------------:
B:-------------:----------------:------------:----------------:
G:-----------5-:--5-5-5-5-5-5-5-:----------3-:--3-3-3-3-3-3-3-:
D:--3-3-3-3--5-:--5-5-5-5-5-5-5-:-5-5-5-5--3-:--3-3-3-3-3-3-3-:
A:--3-3-3-3--3-:--3-3-3-3-3-3-3-:-5-5-5-5--1-:--1-1-1-1-1-1-1-:
E:--1-1-1-1----:----------------:-3-3-3-3----:----------------:

E:-------------:----------------:------------:
B:-------------:----------------:------------:
G:-----------5-:--5-5-5-5-5-5-5-:----------3-:
D:--3-3-3-3--5-:--5-5-5-5-5-5-5-:-5-5-5-5--3-:
A:--3-3-3-3--3-:--3-3-3-3-3-3-3-:-5-5-5-5--1-:
E:--1-1-1-1----:----------------:-3-3-3-3----:

AND NOW THE OUTRO
This is the intro moved up to G instead
E:--------10-10-10-10---10-10-10-:----------------------:
B:--------11-10-11-13---11-10-10-:-------------------10-:
G:----------H-------------P------:-----10--------10-----:
D:-------------------------------:---10-----H--10-------:
A:--10-10------------------------:-12-----10-12---------:
E:-------------------------------:----------------------:
Repeat this twice
E:--------10-10-10-10---10-10-10-:---------------------------------:
B:--------11-10-11-13---11-10-10-:------------------------------10-:
G:----------H-------------P------:--------10----10----------10-----:
D:-------------------------------:-----------------------10--------:
A:--10-10------------------------:--10-12----12----10-12-----------:
E:-------------------------------:---------------------------------:
And end it like this
E:--------10-10-10-10---10-10-10-:---------:T
B:--------11-10-11-13---11-10-10-:---------:H
G:----------H-------------P------:------10-:E
D:-------------------------------:---10----:E
A:--10-10------------------------:12-------:N
E:-------------------------------:---------:D

Lyrics:        I hope you're feeling happy now
I see you feel no pain at all it seems
I wonder what you're doin' now
I wonder if you think of me at all
Do you still play the same moves now
Or are those special moods
For someone else
I hope you're feeling happy now
Just because you feel good
Doesn't make you right
Just because you feel good
Still want you here tonight
Does laughter still discover you
I see through all the smiles
That look so right
Do you still have the same friends now
To smoke away your problems and your life
Oh how do you remeber
Me the one that made
you laugh until you cried
I hope yo're feeling happy now
Just because you feel good
Doesn't make you right
Just because you feel good
Still want you here tonight
I wonder what you're donig now
I hope you're feeling happy now
I hope you're feeling happy now