A Dying Wish
Anathema
AnathemaA Dying Wish Прислать видеоурок
Anathema A Dying Wish
Добавлено: — , Просмотров: 227 (+0)

  Добавить в избранное

A Dying Wish

Tunning (from low to high): E, A, D, F#, B, e

Part I
a)
 e|-------------------------------------------------------------------
 B|-------------------------------------------------------------------
F#|--------0-----------0-----------0----------0-----------------------
 D|---9-------9---9-------9---9------9---9------0---------------------
 A|-----10----------10----------10---------10-------------------------
 E|-0-----------0-----------0----------0------------------------------

 e|-------------------------------------------------------------------
 B|-------------------------------------------------------------------
F#|-------0----------0--0---------0------------0----------------------
 D|----------0-----------------------0------------0-------------------
 A|---7----------7-----------9------------9---------------------------
 E|-8---8------8---8------10---10------10---10------------------------
b)
 e|-------------------------------------------------------------------
 B|-------------------------------------------------------------------
F#|--------0-----------0-----------0----------0-----------------------
 D|---9-------9---9-------9---9------9---9------0---------------------
 A|-----10----------10----------10---------10-------------------------
 E|-0-----------0-----------0----------0------------------------------

 e|-------------------------------------------------------------------
 B|-------------------------------------------------------------------
F#|-------0----------0------------0------------0----------------------
 D|----------0----------0------------0------------0-------------------
 A|---7----------7-----------9------------9---------------------------
 E|-8---8------8---8------10---10------10---10------------------------
c)
 e|-------------------------------------------------------------------
 B|----------------------------------0----------0---------------------
F#|--------0-----------0-----------0----------0-----------------------
 D|---9-------9---9-------9---9----------9----------------------------
 A|-----10----------10----------10---------10-------------------------
 E|-0-----------0-----------0----------0------------------------------

 e|-------------------------------------------------------------------
 B|-------------------------------------------------------------------
F#|-------0----------0------------0------------0----------------------
 D|----------0----------0------------0------------0-------------------
 A|---7----------7-----------9------------9---------------------------
 E|-8---8------8---8------10---10------10---10------------------------
d)
 e|-------------------------------------------------------------------
 B|-------------------------------------------------------------------
F#|--------0-----------0-----------0----------0-----------------------
 D|---9-------9---9-------9---9------9---9------0---------------------
 A|-----10----------10----------10---------10-------------------------
 E|-0-----------0-----------0----------0------------------------------

 e|-------------------------------------------------------------------
 B|-------------------------------------------------------------------
F#|-------0----------0------------0------------0----------------------
 D|----------0----------0------------0------------0-------------------
 A|---7----------7-----------9------------9---------------------------
 E|-8---8------8---8------10---10------10---10------------------------

Part II
                                                                    x3
 e|-------------------------------------------------------------------
 B|-------------------------------------------------------------------
F#|-------------------------------------------------------------------
 D|--7---7-5-4-5-----7---7-5-4-5-----7---7-5-4-5-----7---7-5-4-5------
 A|-------------------------------------------------------------------
 E|-------------------------------------------------------------------

Part III
a)
 e|-------------------------------------------------------------------
 B|-------------------------------------------------------------------
F#|-------------0-------0------------0----------0---------------------
 D|---9----9-------9-------9----9------9---9------0-------------------
 A|-----10---10------10-----------10---------10-----------------------
 E|-0-------------------------0----------0----------------------------
    *
 e|-------------------------------------------------------------------
 B|-------------------------------------------------------------------
F#|-------0----------0------------0------------0----------------------
 D|----------0----------0------------0------------0-------------------
 A|---7----------7-----------9------------9---------------------------
 E|-8---8------8---8------10---10------10---10------------------------
b)
 e|-------------------------------------------------------------------
 B|-------------------------------------------------------------------
F#|-------------0-------0-----------------0-------0-------------------
 D|---9----9-------9-------9----9----9-------9-------0----------------
 A|-----10---10------10-----------10---10------10---------------------
 E|-0-------------------------0---------------------------------------
    *
 e|-------------------------------------------------------------------
 B|-------------------------------------------------------------------
F#|-------0----------0------------0------------0----------------------
 D|----------0----------0------------0------------0-------------------
 A|---7----------7-----------9------------9---------------------------
 E|-8---8------8---8------10---10------10---10------------------------
c)
 e|-------------------------------------------------------------------
 B|-------------------------------------------------------------------
F#|-----------------------0-----------0-----------0-------------------
 D|---9----9----9----9-------9---9-------9---9------0-----------------
 A|-----10---10---10---10----------10----------10---------------------
 E|-0--------------------------0-----------0--------------------------
    *                   *
 e|-------------------------------------------------------------------
 B|-------------------------------------------------------------------
F#|-------0----------0------------0------------0----------------------
 D|----------0----------0------------0------------0-------------------
 A|---7----------7-----------9------------9---------------------------
 E|-8---8------8---8------10---10------10---10------------------------
d)
 e|-------------------------------------------------------------------
 B|-------------------------------------------------------------------
F#|-------------0-------0------------0----------0---------------------
 D|---9----9-------9-------9----9------9---9------0-------------------
 A|-----10---10------10-----------10---------10-----------------------
 E|-0-------------------------0----------0----------------------------
    *                  *
 e|-------------------------------------------------------------------
 B|-------------------------------------------------------------------
F#|-------0----------0--0----0----------------------------------------
 D|----------0--------------------------------------------------------
 A|---7----------7----------------------------------------------------
 E|-8---8------8---8------10------------------------------------------
* Second Guitar plays D|-7h9-

Part IV
 A|-12-12-12-12-10--9-10---------12-12-12-12-10--9-10-------
 E|--0--0--0--0--0--0--0----------0--0--0--0--0--0--0-------
 A|-12-12-12-12-10--9-10---------12-12-12-12-10--9-10-------
 E|--8--8--8--8--8--8--8----------0--0--0--0--0--0--0-------

Part V - Verse 1
                                                                       x3
 e|----------------------------------------------------------------------
 B|----------------------------------------------------------------------
F#|-------------0--------------0--------0--------0----------0----------0-
 D|-7h9----9-------7h9----9----------------------------------------------
 A|-----10---10--------10---10------7--------7---------9----------9------
 E|-------------------------------8---8----8---8----10---10----10---10---

 e|-----------------------------------------------------
 B|-----------------------------------------------------
F#|-------------0--------------0------------------------
 D|-7h9----9-------7h9----9-------14--12---10--8----7---
 A|-----10---10--------10---10--------------------------
 E|-----------------------------------------------------

Part VI - the same as Part IV
try to tab other parts :)

Ещё песни с аккордами исполнителя/группы «Anathema»