...Alone
Anathema
Anathema...Alone Прислать видеоурок
Anathema ...Alone
Добавлено: — , Просмотров: 230 (+1)

  Добавить в избранное

...Alone

------------------------------------------------------------------------------
-------0---0-----------0-----0h1-----------0---0-----------0-----0h1-----1p0--
-----2-----2---------2-----2-------------2---------------2-----2-------2------
---2---------------2-----2-------------2-------2-------2-----2-------2--------
-0-------0-------0-------------------0-------0-------0------------------------
------------------------------------------------------------------------------

----------0--0---
-1--0-----1--3---
-2--2-----2--2---
-2--2-----2--2---
-0--0-----0--0---
-----------------
                         (softly)
-10--8--7------------0---0---------------------------0-------0----------------
-----------------0---0-----0-------------0-------1-----0-------0--------------
---------------2-----2-------2---------2-------2---------5-------5------------
-------------3-------3---------3-----2-------2-------------7-------7----------
-----------0-------0---------------0-------0----------------------------------
------------------------------------------------------------------------------

---------------0-------0------------------------------------------------------
-------0---0-----0-------0----------------0-------1----1-0-----3-1------------
-----2-------------5-------5------------2-------2--------------0-0------------
---2-------2---------7-------7--------2-------2-------2------2----------------
-0-------0--------------------------0-------0-------0------0------------------
------------------------------------------------------------------------------

---------------0-------0------------------------------------------------------
-------0---0-----0-------0--------------5s3-----3s1---------------------------
-----2-----2-------5-------5----------------------------5s4-----4s2-----------
---2-----------------7-------7--------2-------2-------2-------2---------------
-0-------0--------------------------0-------0-------0-------0-----------------
------------------------------------------------------------------------------
                  (slow down)
---------------------------------0------------------
-------0-------0-----0---0----------0---------------
-----2-------2---------2---2-----------5------------
---2-------2-------2----------------------7---------
-0-------0-------0---------------------------0------
------------------------------------------------0---
  here comes the chording part (variate each until it changes):
  - maybe it is not corect everywhere -
             i gave you my soul     you left me dying
-0-----0---------------0-----------------------0----------0-------------------
-0-----0---------------0-----------------------0----------0-------------------
-5-----5---------------4-----------------------4----------4-------------------
-------7---------------6-----------------------3----------2-------------------
-------0----------------------------------------------------------------------
------------------------------------------------------------------------------
after the synthy part:
     within the walls      of my mind..... alone
---0--------------------------------------------------------------------------
---0--------------------------------------------------------------------------
---4--------------------------------------------------------------------------
---2--------------------------------------------------------------------------
--(2)-------------------------------------------------------------------------
------------------------------------------------------------------------------
     the winter serenade     fell silent to me
---------------0--------------------------------------------------------------
---------------0--------------------------------------------------------------
---------------2--------------------------------------------------------------
---------------2--------------------------------------------------------------
---------------0--------------------------------------------------------------
------------------------------------------------------------------------------
(this last chord is pulled to pieces at the end)

Ещё песни с аккордами исполнителя/группы «Anathema»