Angelica
Anathema
AnathemaAngelica Прислать видеоурок
Anathema Angelica
Добавлено: — , Просмотров: 469 (+0)

  Добавить в избранное

Angelica

0:00 - 0:26  play 3 times - acoustic
----------------------------------------------
-------0---1---p0h1p0-------3---1p0-----1p0---
-0---2-----2----------2p0---0-------2---------
-2--------------------------------------------
----------------------------------------------
----------------------------------------------

0:27 - 0:39  play 1 time - acoustic
-----------------------------------
-----0-----------------------------
-2-------0---0---------------------
---------------4p0h4h5---4-2-(2)---
-----------------------------------
-----------------------------------

0:40 - 0:56  play 2 times
--------------------------------------------------
-----------0---1---p0h1p0-------3---1p0-----1p0---
-4s2-0---2-----2----------2p0---0-------2---------
-----2--------------------------------------------
--------------------------------------------------
--------------------------------------------------

0:57 - 1:12
---------------------------------------------- guitar #1
-------0---1---p0h1p0-------3---1p0-----1p0---
-0---2-----2----------2p0---0-------2---------
-2--------------------------------------------
----------------------------------------------
----------------------------------------------

---------------------------------------------- guitar #2
--------------------------------------8s7-----
-5s2s4-----5----------------7-------------7---
----------------------------------------------
----------------------------------------------
----------------------------------------------

---------------------------------------------- guitar #1
-------0---1---p0h1p0-------3---1p0-----1p0---
-0---2-----2----------2p0---0-------2---------
-2--------------------------------------------
----------------------------------------------
----------------------------------------------

---------------------------------------------- guitar #2
--------------------------------------7-------
-----5-4------------------------9-------------
----------------------------------------------
----------------------------------------------
----------------------------------------------

1:13 - 1:24
-------------------------------------------------------------
-------------------------------------------------------------
--------7---7------------------------------------------------
-9---10---------10-9---7---9-10-9p7h9------7-----7h9-7s5-----
---------------------------------------10----9---------------
-------------------------------------------------------------

1:25 - 1:34
------------------------------------------------------------
------------------------------------------------------------
--------7---7---9-------------------------------------------
-9---10-----------9---7---9-10-9p7h9------7-----7h9-7s5-----
--------------------------------------10----9---------------
------------------------------------------------------------

Ещё песни с аккордами исполнителя/группы «Anathema»