Anyone, Anywhere
Anathema
AnathemaAnyone, Anywhere Прислать видеоурок
Anathema Anyone, Anywhere
Добавлено: — , Просмотров: 255 (+0)

  Добавить в избранное

Anyone, Anywhere

normal tuning, tempo approx. 55 bpm
Accoustic Guitar:
E---------------------------------
B-----3-------3-------3-------3---
G---2---2---2---2---2---2---3---3-
D-0-------3-------3-------3-------
A---------------------------------
E--------------------------------- } play 36 times
Electric Guitar:
E--------------------------------------------------------------------------
B--------------------------------------------------------------------------
G-7-------------------------------7-------7-------7-------7-------7-----3--
D-7--------(let ring, feedback)---7-------7-------7-------7-------7-3---3--
A-5-------------------------------5-------5-------5-------5-------5-3---1--
E-------------------------------------------------------------------1------
  1 2 3 4 1 2 3 4 1 2 3 4 1 2 3 4 1 2 3 4 1 2 3 4 1 2 3 4 1 2 3 4 1 2 3 4
Lyrics                            No     leave  dream   inside   know
E------------------------------------------------------------------------------
B------------------------------------------------------------------------------
G-7-----3--7-----3--7----35-10-10---10-9--7-7--75--3-3---3------2-22--7-7---79-
D-7-3---3--7-3---3--7-3--35-10-10---10-9--7-7--75--3-3---3--3-3-2-22--7-7---79-
A-5-3---1--5-3---1--5-3--13--8--8----8-7--5-5--53--1-1---1--3-3-0-00--5-5---57-
E---1--------1--------1-------------------------------------1-1----------------
  1 2 3 4  1 2 3 4  1 2 3 4  1  2 3   4   1 2 3 4  1 2 3 4  1 2 3  4  1 2 3 4
Lyrics  not     moments                mankind    with   canґt   this is
E-----------------------------------
B-----------------------------------
G-10-10--109-3-3---------2-2-2-2----
D-10-10--109-3-3-----3-3-2-2-2-2----
A--8--8---87-1-1-----3-3-0-0-0-0----
E--------------------1-1------------
   1  2 3 4  1 2 3 4 1 2 3 4 1 2 3 4
Lyrics in this  to be   (4x4x4x3x)

Ещё песни с аккордами исполнителя/группы «Anathema»