Ascension
Anathema
AnathemaAscension Прислать видеоурок
Anathema Ascension
Добавлено: — , Просмотров: 259 (+1)

 
Добавить в избранное

Ascension

Standard tuning (ebgdae).

Fig.1 (rythm guitar - played a couple of times)
      D 
|------------|
|------------|
|------------|
|----0-------|
|----2-------|
|------------|
Fig.2 (lead guitar)
|----------------------------------------------------------|
|----------------------------------------------------------|
|----------------------------------------------------------| last note is
|---0-2-3-4-5~---------------0-2-3-4-5-4-3-4-3-2-2-2~------| sometimes finished
|----------------------------------------------------------| with feedback
|----------------------------------------------------------|
Fig.2b (one of many ways to play figure 2)
|----------------------------------------------------------|
|----------------------------------------------------------|
|----------------------------------------------------------|
|---0-2-3-4-5~---------------0-2-3-4-5-4-3-4-3-2---2-------|
|------------------------------------------------4---4-2~--|
|----------------------------------------------------------|
Fig.3 (lead guitar)
|--------------------------|
|--------------------------|
|--------------------------|
|------4----2~-------------|
|---2----2-----------------|
|--------------------------|

Ещё песни с аккордами исполнителя/группы «Anathema»