Barriers
Anathema
AnathemaBarriers Прислать видеоурок
Anathema Barriers
Добавлено: — , Просмотров: 221 (+0)

 
Добавить в избранное

A fine day to exit (2001)
Barriers

List of chords used in the song
E|-2-|-0-|-3-|-0-|-0-|
B|-3-|-2-|-3-|-0-|-0-|
G|-4-|-2-|-0-|-0-|-0-|
D|-4-|-2-|-0-|-4-|-2-|
A|-2-|-0-|-2-|-4-|-2-|
E|---|---|-3-|-2-|-0-|
   Bm  A   G  F#5  Em 
(If you wanto to play the Electric piano part with guitar here is a freely
adaptation)
E|---------------|---------------|---------------|-----------------|
B|---------3---3-|---------3---3-|-------3-0-3---|-----------------|
G|-------4---4---|-------4---4---|-----3---------|-------4-6-4-----|
D|-----4---------|-----4---------|---3-----------|-----5-------5---|
A|-2-------------|-2-------------|-0-------------|---5-----------5-|
E|---------------|---------------|---------------|-3---------------|
   Bm                              A               G 
Acoustic guitar (multiple strokes)
Bm  A   G 
-----
CHORUS
A clean guitar plays over the acoustic guitar
E|--------------|--------------|---------------|--------|--------|
B|---------0----|---------0----|---------0-----|--------|--------|
G|-------0---0--|-------0---0--|-------0---0---|--------|--------|
D|-----4------4-|-----4------4-|-----2-------2-|--5p4---|--5p4---|
A|---4----------|---4----------|---2-----------|------5-|------5-|
E|-2------------|-2------------|-0-------------|-3------|-5------|
   F#5                           Em              G        A 
Chorus:
F#  Em   G  A 
-----
Bm  A   G 
-----
Chorus:
F#  Em   G  A 
...
(The song ends with Bm A G Em  chords.)

Ещё песни с аккордами исполнителя/группы «Anathema»