Deep
Anathema
AnathemaDeep Прислать видеоурок
Anathema Deep
Добавлено: — , Просмотров: 225 (+0)

  Добавить в избранное

Deep

Guitar 1
Clean
Riff 1a
|-----------------------------------------------------------------|
|-----------------------0-------------------------------0---------|
|-------0-------------------------------0-------------------------|
|---2-------3---2---2-------3---2---2-------3---2---2-------3---2-|
|-0---0---0---0---0---0---0---0---0---0---0---0---0---0---0---0---|
|-----------------------------------------------------------------|
                                                        1. ending
|-----------------------------------------------------|-------------|
|-----------------------0-----------------------------|---0---------|
|-------0-------------------------------0-------------|-------------|
|---2-------3---2---2-------3---2---2-------3---2---2-|-------3---2-|
|-----------------------------------------------------|-------------|
|-3---3---3---3---3---3---3---3---3---3---3---3---3---|-3---3---3---|
 last ending
|-0-|
|-0-|
|-0-|
|-2-|
|---|
|-3-|
Electric
Riff 1b
|-------------------------------------------------|
|-------------------------------------------------|
|----------------4~----------------------4~-------|
|----5~-3~-2~-------3~-2~----5~-3~-2~-------3~-2~-|
|-0-----------0-----------0-----------0-----------|
|-------------------------------------------------|

|-------------------------------------------------|
|-------------------------------------------------|
|----------------4~----------------------4~-------|
|----5~-3~-2~-------3~-2~----5~-3~-2~-------3~-2~-|
|-------------------------------------------------|
|-3-----------3-----------3-----------3-----------|
Solo
|------------------------------------------------------------|
|------------------------------------------------------------|
|-----5h7------(7)/9\5----(5)\4p0h4h5p4p0----(0)h4h5p4p0-|
|-5h7--------------------------------------------------------|
|------------------------------------------------------------|
|------------------------------------------------------------|

|-----------------------------------------------------------------------------|
|-----------------------------------------------------------------------------|
|-----5h7----(7)/9/12-12/14------12-9-12h14~--12-9-12h14~--12-9-12h14-9~~-|
|-5h7-------------------------------------------------------------------------|
|-----------------------------------------------------------------------------|
|-----------------------------------------------------------------------------|
Guitar 2
Electric
Riff 1b
|-----------------------------------------------------------------------|
|---------------------------------------------3-3--3-3-3-3-3--3-3-3-3-3-|
|-2-2--2-2-2-2-2--2-2-2-2-2--2-2-2-2-2--2-2-2-0-0--0-0-0-0-0--0-0-0-0-0-|
|-2-2--2-2-2-2-2--2-2-2-2-2--2-2-2-2-2--2-2-2-0-0--0-0-0-0-0--0-0-0-0-0-|
|-0-0--0-0-0-0-0--0-0-0-0-0--0-0-0-0-0--0-0-0---------------------------|
|---------------------------------------------3-3--3-3-3-3-3--3-3-3-3-3-|

|------------------|
|-3-3-3-3-3--3-3-3-|
|-0-0-0-0-0--0-0-0-|
|-0-0-0-0-0--0-0-0-|
|------------------|
|-3-3-3-3-3--3-3-3-|
Clean
Riff 2 and rhythm on solo
|------------------------------------------------------------|
|-------1--------------0--------------1-------------1--------|
|-----0----0---------0----0---------0----0--------0----0-----|
|---2--------2-----0--------0-----2--------2----2--------2---|
|-3------------3----------------0------------0-------------0-|
|----------------3------------3------------------------------|

|-------------------------------------------------------0-|
|-------1--------------0--------------0------1------3-----|
|-----0----0---------0----0---------2----2------2-----2---|
|---3--------3-----0--------0-----2--------2------2-------|
|-------------------------------0-------------------------|
|-1------------1-3------------3---------------------------|

Ещё песни с аккордами исполнителя/группы «Anathema»