Destiny
Anathema
AnathemaDestiny Прислать видеоурок
Anathema Destiny
Добавлено: — , Просмотров: 228 (+0)

  Добавить в избранное

Destiny

-0------------ play it 36 times
----0---------
-------5------
----------7---
--------------
--------------

-------------- ...after a sort break play slowly
--------------
--------------
-------6------
-7------------
--------------

-0------------ play it 44 times
----0---------
-------5------
----------7---
--------------
--------------

-------------- end with this "solo"
--------------
--------------
--------------
-7------------
--------------

through the whole song another guitar accompany
the melody with these sounds (you can here how
they variate them):
  1.   2.   3.   4.   5.   6.
-------------------------------
-------------------------------
-------------------------------
-------2-----------------------
--0----0---------2---------3---
------------0----0----1----1---

Ещё песни с аккордами исполнителя/группы «Anathema»