Destiny Is Dead
Anathema
AnathemaDestiny Is Dead Прислать видеоурок
Anathema Destiny Is Dead
Добавлено: — , Просмотров: 252 (+0)

  Добавить в избранное

Destiny Is Dead

Riff 1:        |-----------------------|------------------------//
|-----------------------|------------------------//
|--------------5-/-7--|---------------5-/-7--//
|-0--3--5-/-7-----------|--0--3--5-/-7-----------//

Riff 2:        |-----------------------|------------------------//
|-----------------------|------------------------//
|--------------7-/-9--|---------------7-/-9--//
|-0--3--5-/-7-----------|--0--3--5-/-7-----------//

Fill in:    |-----------------------//
|-------5---------------//
|-5--7-----7~~----------//
|-----------------------//

Repeat the riffs as often as necessary!

Ещё песни с аккордами исполнителя/группы «Anathema»