Empty
Anathema
AnathemaEmpty Прислать видеоурок
Anathema Empty
Добавлено: — , Просмотров: 223 (+0)

  Добавить в избранное

Empty

Intro (keyboard chords for guitar)
E|--------------
B|--------------
G|--------------
D|--9---7---2---
A|--9---7---2---
E|--7---5---0---

RIFF A
E|----------------------------------------
B|----------------------------------------
G|----------------------------------------
D|--2-2-2-2-2-2-2-2-2-2-2-2-2-2-----2-2-2-
A|--2-2-2-2-2-2-2-2-2-2-2-2-2-2-----2-2-2-
E|--0-0-0-0-0-0-0-0-0-0-0-0-0-0-0-3-0-0-0-

RIFF C (verses)
E|-------------------------------------------------------------------
B|-------------------------------------------------------------------
G|-------------------------------------------------------------------
D|--9-9-9-9-9-9-9-9-9-9-9--7-7-7-7-7--2-2-2-2-2-2-2-2-2-------2-2-2--
A|--9-9-9-9-9-9-9-9-9-9-9--7-7-7-7-7--2-2-2-2-2-2-2-2-2-------2-2-2--
E|--7-7-7-7-7-7-7-7-7-7-7--5-5-5-5-5--0-0-0-0-0-0-0-0-0--0-3--0-0-0--

RIFF D (Bridge) w/ wah
E|---------------------------------
B|---------------------------------
G|--11---11---11------11--12-12----
D|----12---12-----12---------------
A|---------------------------------
E|--------------------------------

Ещё песни с аккордами исполнителя/группы «Anathema»