Far Away
Anathema
AnathemaFar Away Прислать видеоурок
Anathema Far Away
Добавлено: — , Просмотров: 207 (+0)

  Добавить в избранное

Far Away

Rhythm guitar
Acoustic
Introducing riff
|---------------------------------------------------|
|------0-----------0-----------0--------------------|
|---------2-----------2-----------2--------0--------|
|----2------0----0------0----0------0----0----------|
|-0-------------------------------------------------|
|-------------2-----------1-----------3-------0-3h5-|
'One common,...'
|---------------------------------------------------------------------------|
|---------------------------------------------------------------------------|
|------2-----------2-----------2-----------0-------------2-----------2------|
|----2----2------0----0------0----0------0-------------2----2------0----0---|
|-0---------0---------------------------------------0---------0-------------|
|-------------2---------2-1---------1-3-------0-3h5-------------2---------2-|
                 *            last ending
|-------------(-----)--------|----------|
|-------------(-----)--------|----------|
|------2------(-----)--------|--------0-|
|----0----0---(----0)--------|------0---|
|-------------(--2--)--------|----2-----|
|-1---------1-(3----)--0-3h5-|-3--------|
*not sure about this
Electric
Chorus
|------------------|
|------3----0------|
|-2----0----2----7-|
|-2----0----0----7-|
|-0--------------5-|
|------3----2----5-|
Bridge
|-----------------------------------------------------------------|
|-----------------------------------------------------------------|
|-----------------------------------------------------------------|
|-2-2-2-2-2-2-2-2-2-2-2-2-2-2-2-2-2-2-2-2-2-2-2-2-2-5-5-5-5-5-5-5-|
|-2-2-2-2-2-2-2-2-2-2-2-2-2-2-2-2-2-2-2-2-2-2-2-2-2-5-5-5-5-5-5-5-|
|-0-0-0-0-0-0-0-0-0-0-0-0-0-0-0-0-0-0-0-0-0-0-0-0-0-3-3-3-3-3-3-3-|
  . . . . . . . . . . . . . . . . . . . . . . . . .
Acoustic
Riff 2
|------------0-0-----|
|-1-1-1-1--1-0-0-----|
|-2-2-2-2--2-2-2-----|
|-2-2-2-2--2-2-2-...-|
|--------------------|
|--------------------|
Electric
Rhythm on solo
|-----------------------------------------------------------------|
|-----------------3-3-3-3-3-3-3-3-0-0-0-0-0-0-0-0-----------------|
|-2-2-2-2-2-2-2-2-0-0-0-0-0-0-0-0-2-2-2-2-2-2-2-2-7-7-7-7-7-7-7-7-|
|-2-2-2-2-2-2-2-2-0-0-0-0-0-0-0-0-0-0-0-0-0-0-0-0-7-7-7-7-7-7-7-7-|
|-0-0-0-0-0-0-0-0---------------------------------5-5-5-5-5-5-5-5-|
|-----------------3-3-3-3-3-3-3-3-2-2-2-2-2-2-2-2-5-5-5-5-5-5-5-5-|
Lead guitar
Electric
Introducing riff
|-----------------------------------------------------------|
|-15p10----(17p10)----/15-15----1312----(12)10~~-|
|-----------------------------------------------------------|
|-----------------------------------------------------------|
|-----------------------------------------------------------|
|-----------------------------------------------------------|
Singing riff (with delay fx)
one life ... another day    a vestal child         Innocence slips away
|-------------------------------------------------------------------------|
|---------17p10---------------15p10--------------22-----------------------|
|-------------------------------------------------------------------------|
|-------------------------------------------------------------------------|
|-------------------------------------------------------------------------|
|-------------------------------------------------------------------------|
Chorus
|-----------------------------------------------------------------------------------|
|-12--------(12)h13p1210--------12--10-12--10-12-13-/15~--13--12-10-12-13~-|
|-----------------------------------------------------------------------------------|
|-----------------------------------------------------------------------------------|
|-----------------------------------------------------------------------------------|
|-----------------------------------------------------------------------------------|

|---------------------------------------------------------------------|
|-12h13p12p10h12----13-17----15~--(15)bfrp13p12h13p1210~----12~~-|
|---------------------------------------------------------------------|
|---------------------------------------------------------------------|
|---------------------------------------------------------------------|
|---------------------------------------------------------------------|
Acoustic
Riff 2
|---------------0---------------0---------------0---------------0-|
|--------0---------------0---------------0---------------0--------|
|----5------5--------5------5--------5------5--------5------5-----|first two
|------7------7----5---5------5----4---4------4----0---0------0---|times
|--0--------------------------------------------------------------|
|-----------------------------------------------------------------|

|---------------0---------------0---------------0---------------0-|
|-------0---------------0---------------0---------------0---------|
|---5-------5-------5-------5-------5-------5-------5-------5-----|next five
|-----7---7---7---5---5---5---5---4---4---4---4---0---0---0---0---|times
|-0---------------------------------------------------------------|
|-----------------------------------------------------------------|

Ещё песни с аккордами исполнителя/группы «Anathema»