J'ai Fait Une Promesse
Anathema
AnathemaJ'ai Fait Une Promesse Прислать видеоурок
Anathema J'ai Fait Une Promesse
Добавлено: — , Просмотров: 216 (+0)

  Добавить в избранное

J'ai Fait Une Promesse

This tab is not Finished, the last part of the song is missing…and I’m to lazy
to transcribe it…hehehe….if u do it, please let me know...

|----------1--------------3-|----------1-----------3-----|-----------1----------------|
|------3---3----------3---3-|------3---3-------3---3-----|-----------1----------------|
|----2---2----------3---3---|----2---2-------0---0-------|-------3--------------------|
|--0--------------0---------|--0-------------------------|-----3---3------------------|
|---------------------------|--------------3-------------|---1------------------------|
|---------------------------|----------------------------|----------------------------|

|----------1--------------3-|----------1-----------3-----|-------3--------------------|
|------3---3----------3---3-|------3---3-------3---3-----|------3---------------------|
|----2---2----------3---3---|----2---2-------0---0-------|-----5----------------------|
|--0--------------0---------|--0-------------------------|----5-----------------------|
|---------------------------|--------------3-------------|---3------------------------|
|---------------------------|----------------------------|----------------------------|

|------1------1-----------3-|------1------1-----------3--|-------3--------------------|
|----3--3---3--3------3---3-|----3--3---3--3------3---3--|------3---------------------|
|---2-2----2-2------3---3---|---2-2----2-2------0---0----|-----5----------------------|
|--0------0-------0---------|--0------0------------------|----5-----------------------|
|---------------------------|-----------------3----------|---3------------------------|
|---------------------------|----------------------------|----------------------------|

|------2-3-----5-3---------3|----------------------------|
|----3-------3---------3---3|----------------------------|
|---2-2-----2-2------0---0--|-----3-----5----------------|
|--0-------0----------------|---3-----5------------------|
|-------------------3-------|-1-----3--------------------|
|---------------------------|----------------------------|

|------2-3-----5-3---------3|----------------------------|
|----3-------3---------3---3|----------------------------|
|---2-2-----2-2------0---0--|-----3-----5----------------|
|--0-------0----------------|---3-----5------------------|
|-------------------3-------|-1-----3--------------------|
|---------------------------|----------------------------|

|------2-3-----5-3---------3|----------------------------|
|----3-------3---------3---3|----------------------------|
|---2-2-----2-2------0---0--|-----3-----5----------------|
|--0-------0----------------|---3-----5------------------|
|-------------------3-------|-1-----3--------------------|
|---------------------------|----------------------------|

|------2-3-----5-3---------3|--------------------3-------|
|----3-------3---------3---3|-------------------3--------|
|---2-2-----2-2------0---0--|-----3-----5------5---------|
|--0-------0----------------|---3-----5-------5----------|
|-------------------3-------|-1-----3--------3-----------|
|---------------------------|----------------------------|
Next Part Is missing, i’ve been to lazy to make it…

Ещё песни с аккордами исполнителя/группы «Anathema»