Judgement
Anathema
AnathemaJudgement Прислать видеоурок
Anathema Judgement
Добавлено: — , Просмотров: 245 (+0)

  Добавить в избранное

Judgement

Tuning: D(6)    A(5)
        D(4)    G(3)
        B(2)    E(1)

Riff 1 (acoustic)  guitar 1
 1.         2.             3.            4.
|-3-5-1----|----5-6------|-------------|-------------|
|-3--------|----6---5----|----6-5-3----|----1h3-3----|
|-2--------|----7--------|----7-5-3----|----2---2----|
|-0--------|----0--------|--------0----|----0---0----|
|----------|-------------|-------------|-------------|
|----------|-------------|-------------|-------------|
Riff 1 guitar 2
|----------------------------------------------------|
|----------------------------------------------------|
|----------------------------------------------------|
|----0-----0-----0-----0-----0-----0-----0-----0-----|
|----------------------------------------------------|
|-0-----0-----0-----0-----0-----0-----0-----0--------|
Riff 2 (electric)
 1. 2.   3. 4.
|------|--------|
|------|-6-5-3--|
|------|-7-5-3--|
|-0----|-0-0-0--|
|-0----|-5-3-1--|
|-0----|--------|
Riff 3
|--------------------------------|
|-11---10---8---10---6--------8--|
|--------------------------------|
|-8----7----5---7----3--------5--|
|--------------------------------|
|-0----0----0---0----0--------0--|
Riff 4     Riff 5
|--------|----------------------------------------|
|-6-/-8--|--8--11--8--13---8----8--11--8--16--15--|
|--------|----------------------------------------|
|-3-/-5--|--5--8---5--10---5----5--8---5--13--12--|
|--------|----------------------------------------|
|-0---0--|--0--0---0---0---0----0--0---0--0---0---|
Rhythm on riffs 3 and 4
|--------------------------------------|
|--------------------------------------|
|--------------------------------------|
|-0-000000-0-000000-0-000000-0-000000--|
|-0-000000-0-000000-0-000000-0-000000--|
|-0-000000-0-000000-0-000000-0-000000--|
Rhythm on riff 5
|--------------------------------------|
|--------------------------------------|
|--------------------------------------|
|-3-333333-3-333333-5-555555-5-555555--|
|-3-333333-3-333333-5-555555-5-555555--|
|-3-333333-3-333333-5-555555-5-555555--|

Ещё песни с аккордами исполнителя/группы «Anathema»