Kingdom
Anathema
AnathemaKingdom Прислать видеоурок
Anathema Kingdom
Добавлено: — , Просмотров: 263 (+0)

 
Добавить в избранное

Kingdom

from 0:00 - 0:20
guitars fade in from silent, some harmonics and chords are played, i think there
some B, G and E tones (it's hard to tab)
beginning            G1part             G1part           E1 part
e-----------------|-------------------|----------------|----------------
b-------0---------|---------0---0---0-|------0---0---0-|-------0---0---0
g---6-----let ring|-----6-------------|--6-------------|---6------------
D-5---5-----------|---5---5-------5---|5---5-------5---|----------------
A-----------------|-------------------|----------------|-7---7-------7--
E-----------------|-------------------|----------------|----------------
  F#1part           G1               G1               B1part
E-----------------|----------------|----------------|-------------------
A-------0---0---0-|------0---0---0-|------0---0---0-|--0--0---0---0-----
D---6-------------|--6-------------|--6-------------|---6---------------
g-4---4-------4---|5---5-------5---|5---5-------5---|-------------------
h-----------------|----------------|----------------|-------------------
e-----------------|----------------|----------------|7------7---7-------
i think if you have 7-string g you can play     this э B tone on 7th B string
These parts are played almost through the whole song, from begining to the
second distorted part which start at
And these clean guitar parts follow this pattern
beginning G1 G1 E1 F#1 G1 G1 E1 H1 G1 G1 E1 F#1 G1 G1 E1 H1 H1 H1 H1
and again same pattern
after first cycle of clean guitar parts - some interlude with solo g.
interlude:
e-----------------------------------------------------------------------
b-*?----*?----------------------------------------19------19-17v--15-17-
g-11v--14v--------------------------------7/16v------16-----------------
D------------12v-11h12p119-/11-12-9v---9-------------------------------
A-----------------------------------------------------------------------
E-----------------------------------------------------------------------

e----------------------------------*-------*----------------------------
b-19-17-15-17--15-14-12-10-8-/12--12--127-7----------------------------
g--------------------------------------------------------------?-?------
D----------------------------------------------12-11-9v---7-9-11-9------
A-----------------------------------------------------------------------
E-----------------------------------------------------------------------

e-----------------------------*------------------------------------------
b---------------------------*-7-----------------------------------------
g-------------------------*-7-------------------------------------------
D-12-11-9---------------*-7-----------------------------9----9-11-9-12--
A---------10--7--5--5-8-7-------7--7-9-10-9-10-12-10-12---12------------
E-----------------------------------------------------------------------

e-----------------------------------------------------------------------
b-------------12----/12----/12----/14-----/15------.--------------------
g--11-14-12v-----11-----11----/11-----/11----/12--12---9-11v------------
D-------------------------------------------------------------9---------
A-----------------------------------------------------------------------
E-----------------------------------------------------------------------
interlude continues with some harmonics and tones in B min { i cant really hear
them)
at 4:56 start first distorted part still with clean guitar in backround
Danny and Vinny play just 4 chords G E F#  and B  (i think)
beginning
   G          E5 H5                           F#5 
e-----------------------------------------------------------------------
b-----------------------------------------------------------------------
g-----------------------------------------------------------------------
D--+----------2--4----------------------------4-------------------------
A--2--2L-2----2--2--2-2-/14-2-2-/14-2-2-/14---4-5-7-5-4-2-2-/14--2-2-/14
E--3--3L-3----0--2--3---/15-3---/15-0---/12---2---------3---/15--3---/15

e---------------|-------------------------------------------------------
b------------------------------------------------------|----------------
g------------------------------------------------------|----------------
D------------------------------------------------------|----------------
A--4---2--------4--2--2--4---2-------4---2--/5-4h5p42-|-/4---2-2-2-2---
E--3-3-3-3-3-3-3-3-3--3--0-0-0-0-0-0-2-2-2-------------|--3-3-3-3-3-3---
     |   | | | | |         |   | | |                  |
e--------------------------------|--------------------------------------
b--------------------------------|--play these two parts----------------
g--------------------------------|----all over-till-next passage--------
D------------------------4-------|--------------------------------------
A--4---2-2-2-4---2-------2-2-4-2-|--------------------------------------
E--3-3-3-3-3-0-0-0-0-0-0-2-------|--------------------------------------
                   | | |
there i still clean guitar riff from beginning
second guitar plays:
e-------------------------------|---------------------------------------
b-------------------------------|---------------------------------------
g-------------------------------|---------------------------------------
D-------------------------------|---------------------------------------
A---4--2---4--2---4--2---4--2---|---4--2---4--2---4--2---2-4-2----------
E--3--3---3--3---0--0---2--2----|--3--3---3--3---0--0----2--------------
ending of this distored part                Second dist. part
e--------------------------------------------|--------------------------
b--------------------------------------------|--------------------------
g--------------------------------------------|--------------------------
D-----------4-4--4-2-4-4-4--4-2-4-4-4--4-2-4-|------4-------------------
A-...-2-4-2-2-2------2-2-2------2-2-2--------|2-2-2-2-/5-4-2-4-2-0-2----
E---------2-2-2-2----2-2-2-2----2-2-2-2------|0-0-0-2-------------------
                                                            | | |
                                                                 circle
e-----------------------------------------------------------------------
b-------------------------------this is played by sec. guitar-----------
g----------------------------------6---4----6---4-----------------------
D-------4------------------------4---4----4---4--------4----------------
A-2-2-2-2-/5-4-2-4-2-0-2--------2---2----2---2---2-2-2-2--/5-4-2-4-2-0-2
E-0-0-0-2-----------------0-0-0-3---3----0---0---0-0-0-2----------------
  | | |              | | |             | | |
e-----------------------------------------------------------------------
b-------------------------------this is played by sec. guitar-----------
g---------------------------------6---4----6---4------------------------
D-------4-----------------------4---4----4---4---------4----------------
A-2-2-2-2-/5-4-2-4-2-0-2--------2---2----2---2---2-2-2-2--/9-7-5-7-5-4-5
E-0-0-0-2-----------------0-0-0-3---3----0---0---0-0-0-2----------------
  | |    |               | | |             | | |    here is some modification that
                                                        refers there is some change
e-----------------------------------------------------------------------
b-------------------------------this is played by sec. guitar-----------
g---------------------------------6---4----6---4----6---4-4-7-6-9-7-6---
D-------4-----------------------4---4----1---1----3---3-----------------
A-2-2-2-2-/9-7-5-7-5-4-5--2-2-2-2---2----2---2----4---4-----5-4-7-5-4---
E-0-0-0-2-----------------0-0-0-3---3----0---0----2---2-----------------
  | | |               | | |
e-----------------------------------------------------------------------
b-----------------------------------------------------------------------
g----6---4----6---4-----------------------------------------------------
D--4---4----1---1-------------------------------------------------------
A--2---2----2---2---and continue-where circle starts--------------------
E--3---3----0---0-------------------------------------------------------
ending of the song
e-----------------------------------------------------------------------
b-----------------------------------------------------------------------
g---------------------------------------some harmonics at the end-------
D--4--4-2-4-4--4-4-2-4-4--4-4-2-4-4-~-----------------------------------
A--2--------2--2-------2--2-------2-~-----------------------------------
E--2--------2--2-------2--2-------2-~-----------------------------------

Ещё песни с аккордами исполнителя/группы «Anathema»